ISO-10303-21;
HEADER;
FILE_DESCRIPTION (( 'STEP AP203' ),
    '1' );
FILE_NAME ('14689.step',
    '2021-12-06T12:58:23',
    ( '' ),
    ( '' ),
    'SwSTEP 2.0',
    'SolidWorks 2019',
    '' );
FILE_SCHEMA (( 'CONFIG_CONTROL_DESIGN' ));
ENDSEC;

DATA;
#1 = AXIS2_PLACEMENT_3D ( 'NONE', #116, #103, #114 ) ;
#2 = CC_DESIGN_PERSON_AND_ORGANIZATION_ASSIGNMENT ( #145, #166, ( #19 ) ) ;
#3 = ORIENTED_EDGE ( 'NONE', *, *, #33, .T. ) ;
#4 = CALENDAR_DATE ( 2021, 6, 12 ) ;
#5 = UNCERTAINTY_MEASURE_WITH_UNIT (LENGTH_MEASURE( 1.000000000000000082E-05 ), #162, 'distance_accuracy_value', 'NONE');
#6 = FACE_OUTER_BOUND ( 'NONE', #52, .T. ) ;
#7 = CYLINDRICAL_SURFACE ( 'NONE', #10, 4.000000000000000000 ) ;
#8 = PERSON_AND_ORGANIZATION_ROLE ( 'design_supplier' ) ;
#9 = FACE_OUTER_BOUND ( 'NONE', #51, .T. ) ;
#10 = AXIS2_PLACEMENT_3D ( 'NONE', #34, #151, #30 ) ;
#11 = COORDINATED_UNIVERSAL_TIME_OFFSET ( 1, 0, .AHEAD. ) ;
#12 = SECURITY_CLASSIFICATION_LEVEL ( 'unclassified' ) ;
#13 = CARTESIAN_POINT ( 'NONE',  ( 0.0000000000000000000, 4.000000000000000000, 0.0000000000000000000 ) ) ;
#14 = ADVANCED_FACE ( 'NONE', ( #6, #58 ), #7, .F. ) ;
#15 = FACE_OUTER_BOUND ( 'NONE', #146, .T. ) ;
#16 = PRODUCT_DEFINITION_SHAPE ( 'NONE', 'NONE',  #85 ) ;
#17 = APPLICATION_PROTOCOL_DEFINITION ( 'international standard', 'config_control_design', 1994, #78 ) ;
#18 = CC_DESIGN_PERSON_AND_ORGANIZATION_ASSIGNMENT ( #50, #8, ( #106 ) ) ;
#19 = SECURITY_CLASSIFICATION ( '', '', #12 ) ;
#20 = CC_DESIGN_PERSON_AND_ORGANIZATION_ASSIGNMENT ( #149, #90, ( #102 ) ) ;
#21 = AXIS2_PLACEMENT_3D ( 'NONE', #108, #48, #93 ) ;
#22 = DIRECTION ( 'NONE',  ( -3.491481338843133355E-15, 1.040949779275249943E-15, -1.000000000000000000 ) ) ;
#23 = PERSON_AND_ORGANIZATION_ROLE ( 'creator' ) ;
#24 = EDGE_CURVE ( 'NONE', #115, #115, #131, .T. ) ;
#25 =( NAMED_UNIT ( * ) SI_UNIT ( $, .STERADIAN. ) SOLID_ANGLE_UNIT ( ) );
#26 = COORDINATED_UNIVERSAL_TIME_OFFSET ( 1, 0, .AHEAD. ) ;
#27 = ORIENTED_EDGE ( 'NONE', *, *, #24, .F. ) ;
#28 = PERSON_AND_ORGANIZATION ( #107, #156 ) ;
#29 = CC_DESIGN_PERSON_AND_ORGANIZATION_ASSIGNMENT ( #123, #23, ( #106 ) ) ;
#30 = DIRECTION ( 'NONE',  ( 3.634456729012414027E-30, 1.000000000000000000, 1.040949779275249943E-15 ) ) ;
#31 = DIRECTION ( 'NONE',  ( -3.634456729012414027E-30, -1.000000000000000000, -1.040949779275249943E-15 ) ) ;
#32 = APPROVAL_STATUS ( 'not_yet_approved' ) ;
#33 = EDGE_CURVE ( 'NONE', #168, #168, #80, .T. ) ;
#34 = CARTESIAN_POINT ( 'NONE',  ( 0.0000000000000000000, 0.0000000000000000000, 0.0000000000000000000 ) ) ;
#35 = CC_DESIGN_APPROVAL ( #155, ( #85 ) ) ;
#36 = ADVANCED_FACE ( 'NONE', ( #154, #62 ), #152, .T. ) ;
#37 = DIRECTION ( 'NONE',  ( -3.491481338843133355E-15, 1.040949779275249943E-15, -1.000000000000000000 ) ) ;
#38 = DATE_TIME_ROLE ( 'classification_date' ) ;
#39 = CC_DESIGN_SECURITY_CLASSIFICATION ( #19, ( #106 ) ) ;
#40 = EDGE_CURVE ( 'NONE', #99, #99, #94, .T. ) ;
#41 = APPROVAL_ROLE ( '' ) ;
#42 = DIRECTION ( 'NONE',  ( 1.000000000000000000, 0.0000000000000000000, 0.0000000000000000000 ) ) ;
#43 =( NAMED_UNIT ( * ) PLANE_ANGLE_UNIT ( ) SI_UNIT ( $, .RADIAN. ) );
#44 = VERTEX_POINT ( 'NONE', #65 ) ;
#45 = CARTESIAN_POINT ( 'NONE',  ( 6.982962677686267697E-16, 4.000000000000000000, 0.2000000000000000389 ) ) ;
#46 = LOCAL_TIME ( 13, 58, 23.00000000000000000, #11 ) ;
#47 = CARTESIAN_POINT ( 'NONE',  ( -1.998951200956827505E-29, 4.000000000000000000, -5.725223786013874487E-15 ) ) ;
#48 = DIRECTION ( 'NONE',  ( -3.491481338843133355E-15, 1.040949779275249943E-15, -1.000000000000000000 ) ) ;
#49 = EDGE_LOOP ( 'NONE', ( #157 ) ) ;
#50 = PERSON_AND_ORGANIZATION ( #107, #156 ) ;
#51 = EDGE_LOOP ( 'NONE', ( #75 ) ) ;
#52 = EDGE_LOOP ( 'NONE', ( #3 ) ) ;
#53 = MANIFOLD_SOLID_BREP ( 'Corps-Déplacer/Copier1', #87 ) ;
#54 = APPROVAL_DATE_TIME ( #98, #71 ) ;
#55 = APPROVAL_PERSON_ORGANIZATION ( #95, #71, #126 ) ;
#56 = DIRECTION ( 'NONE',  ( -3.491481338843133355E-15, 1.040949779275249943E-15, -1.000000000000000000 ) ) ;
#57 = SHAPE_DEFINITION_REPRESENTATION ( #16, #70 ) ;
#58 = FACE_OUTER_BOUND ( 'NONE', #121, .T. ) ;
#59 = APPROVAL_ROLE ( '' ) ;
#60 = CARTESIAN_POINT ( 'NONE',  ( 0.0000000000000000000, 15.00000000000000000, 0.0000000000000000000 ) ) ;
#61 = APPROVAL_PERSON_ORGANIZATION ( #73, #120, #41 ) ;
#62 = FACE_BOUND ( 'NONE', #160, .T. ) ;
#63 = AXIS2_PLACEMENT_3D ( 'NONE', #137, #66, #42 ) ;
#64 = DATE_AND_TIME ( #4, #129 ) ;
#65 = CARTESIAN_POINT ( 'NONE',  ( 6.982962677686267697E-16, 15.00000000000000000, 0.2000000000000000389 ) ) ;
#66 = DIRECTION ( 'NONE',  ( 0.0000000000000000000, 0.0000000000000000000, 1.000000000000000000 ) ) ;
#67 = FACE_BOUND ( 'NONE', #124, .T. ) ;
#68 = LOCAL_TIME ( 13, 58, 23.00000000000000000, #127 ) ;
#69 = PERSON_AND_ORGANIZATION ( #107, #156 ) ;
#70 = ADVANCED_BREP_SHAPE_REPRESENTATION ( '14689', ( #53, #63 ), #119 ) ;
#71 = APPROVAL ( #136, 'UNSPECIFIED' ) ;
#72 = CIRCLE ( 'NONE', #101, 15.00000000000000000 ) ;
#73 = PERSON_AND_ORGANIZATION ( #107, #156 ) ;
#74 = AXIS2_PLACEMENT_3D ( 'NONE', #47, #22, #142 ) ;
#75 = ORIENTED_EDGE ( 'NONE', *, *, #133, .T. ) ;
#76 = PERSON_AND_ORGANIZATION_ROLE ( 'creator' ) ;
#77 = CC_DESIGN_DATE_AND_TIME_ASSIGNMENT ( #159, #82, ( #85 ) ) ;
#78 = APPLICATION_CONTEXT ( 'configuration controlled 3d designs of mechanical parts and assemblies' ) ;
#79 = DIRECTION ( 'NONE',  ( 3.634456729012414027E-30, 1.000000000000000000, 1.040949779275249943E-15 ) ) ;
#80 = CIRCLE ( 'NONE', #21, 4.000000000000000000 ) ;
#81 = CALENDAR_DATE ( 2021, 6, 12 ) ;
#82 = DATE_TIME_ROLE ( 'creation_date' ) ;
#83 = ORIENTED_EDGE ( 'NONE', *, *, #40, .T. ) ;
#84 = COORDINATED_UNIVERSAL_TIME_OFFSET ( 1, 0, .AHEAD. ) ;
#85 = PRODUCT_DEFINITION ( 'UNKNOWN', '', #106, #104 ) ;
#86 = CALENDAR_DATE ( 2021, 6, 12 ) ;
#87 = CLOSED_SHELL ( 'NONE', ( #36, #117, #163, #14 ) ) ;
#88 = DIRECTION ( 'NONE',  ( 3.491481338843133355E-15, -1.040949779275249943E-15, 1.000000000000000000 ) ) ;
#89 = PRODUCT_RELATED_PRODUCT_CATEGORY ( 'detail', '', ( #102 ) ) ;
#90 = PERSON_AND_ORGANIZATION_ROLE ( 'design_owner' ) ;
#91 = CARTESIAN_POINT ( 'NONE',  ( 6.982962677686121757E-16, -2.081899558550456892E-16, 0.1999999999999958755 ) ) ;
#92 = APPLICATION_CONTEXT ( 'configuration controlled 3d designs of mechanical parts and assemblies' ) ;
#93 = DIRECTION ( 'NONE',  ( 3.634456729012414027E-30, 1.000000000000000000, 1.040949779275249943E-15 ) ) ;
#94 = CIRCLE ( 'NONE', #150, 4.000000000000000000 ) ;
#95 = PERSON_AND_ORGANIZATION ( #107, #156 ) ;
#96 = ORIENTED_EDGE ( 'NONE', *, *, #33, .F. ) ;
#97 = CC_DESIGN_APPROVAL ( #71, ( #106 ) ) ;
#98 = DATE_AND_TIME ( #86, #132 ) ;
#99 = VERTEX_POINT ( 'NONE', #45 ) ;
#100 = CALENDAR_DATE ( 2021, 6, 12 ) ;
#101 = AXIS2_PLACEMENT_3D ( 'NONE', #113, #56, #169 ) ;
#102 = PRODUCT ( '14689', '14689', '', ( #125 ) ) ;
#103 = DIRECTION ( 'NONE',  ( -3.491481338843133355E-15, 1.040949779275249943E-15, -1.000000000000000000 ) ) ;
#104 = DESIGN_CONTEXT ( 'detailed design', #92, 'design' ) ;
#105 = PLANE ( 'NONE',  #111 ) ;
#106 = PRODUCT_DEFINITION_FORMATION_WITH_SPECIFIED_SOURCE ( 'ANY', '', #102, .NOT_KNOWN. ) ;
#107 = PERSON ( 'UNSPECIFIED', 'UNSPECIFIED', 'UNSPECIFIED', ('UNSPECIFIED'), ('UNSPECIFIED'), ('UNSPECIFIED') ) ;
#108 = CARTESIAN_POINT ( 'NONE',  ( -1.453782691604965611E-29, 4.334305771892766888E-30, -4.163799117100999770E-15 ) ) ;
#109 = CC_DESIGN_APPROVAL ( #120, ( #19 ) ) ;
#110 = COORDINATED_UNIVERSAL_TIME_OFFSET ( 1, 0, .AHEAD. ) ;
#111 = AXIS2_PLACEMENT_3D ( 'NONE', #134, #88, #31 ) ;
#112 = DATE_AND_TIME ( #81, #153 ) ;
#113 = CARTESIAN_POINT ( 'NONE',  ( 6.982962677685722397E-16, -2.081899558550337824E-16, 0.1999999999999844125 ) ) ;
#114 = DIRECTION ( 'NONE',  ( 3.634456729012414027E-30, 1.000000000000000000, 1.040949779275249943E-15 ) ) ;
#115 = VERTEX_POINT ( 'NONE', #60 ) ;
#116 = CARTESIAN_POINT ( 'NONE',  ( 0.0000000000000000000, 0.0000000000000000000, 0.0000000000000000000 ) ) ;
#117 = ADVANCED_FACE ( 'NONE', ( #9, #15 ), #148, .T. ) ;
#118 = DIRECTION ( 'NONE',  ( 3.635192770030907673E-30, 1.000000000000000000, 1.043544591017298018E-15 ) ) ;
#119 =( GEOMETRIC_REPRESENTATION_CONTEXT ( 3 ) GLOBAL_UNCERTAINTY_ASSIGNED_CONTEXT ( ( #5 ) ) GLOBAL_UNIT_ASSIGNED_CONTEXT ( ( #162, #43, #25 ) ) REPRESENTATION_CONTEXT ( 'NONE', 'WORKASPACE' ) );
#120 = APPROVAL ( #161, 'UNSPECIFIED' ) ;
#121 = EDGE_LOOP ( 'NONE', ( #165 ) ) ;
#122 = EDGE_LOOP ( 'NONE', ( #158 ) ) ;
#123 = PERSON_AND_ORGANIZATION ( #107, #156 ) ;
#124 = EDGE_LOOP ( 'NONE', ( #83 ) ) ;
#125 = MECHANICAL_CONTEXT ( 'NONE', #78, 'mechanical' ) ;
#126 = APPROVAL_ROLE ( '' ) ;
#127 = COORDINATED_UNIVERSAL_TIME_OFFSET ( 1, 0, .AHEAD. ) ;
#128 = APPLICATION_PROTOCOL_DEFINITION ( 'international standard', 'config_control_design', 1994, #92 ) ;
#129 = LOCAL_TIME ( 13, 58, 23.00000000000000000, #26 ) ;
#130 = APPROVAL_DATE_TIME ( #167, #155 ) ;
#131 = CIRCLE ( 'NONE', #135, 15.00000000000000000 ) ;
#132 = LOCAL_TIME ( 13, 58, 23.00000000000000000, #110 ) ;
#133 = EDGE_CURVE ( 'NONE', #44, #44, #72, .T. ) ;
#134 = CARTESIAN_POINT ( 'NONE',  ( 6.982962677686068509E-16, 4.000000000000000000, 0.1999999999999943212 ) ) ;
#135 = AXIS2_PLACEMENT_3D ( 'NONE', #143, #37, #79 ) ;
#136 = APPROVAL_STATUS ( 'not_yet_approved' ) ;
#137 = CARTESIAN_POINT ( 'NONE',  ( 0.0000000000000000000, 0.0000000000000000000, 0.0000000000000000000 ) ) ;
#138 = FACE_OUTER_BOUND ( 'NONE', #49, .T. ) ;
#139 = CC_DESIGN_DATE_AND_TIME_ASSIGNMENT ( #64, #38, ( #19 ) ) ;
#140 = APPROVAL_PERSON_ORGANIZATION ( #28, #155, #59 ) ;
#141 = DIRECTION ( 'NONE',  ( -3.491481338843133355E-15, 1.040949779275249943E-15, -1.000000000000000000 ) ) ;
#142 = DIRECTION ( 'NONE',  ( 3.634456729012414027E-30, 1.000000000000000000, 1.040949779275249943E-15 ) ) ;
#143 = CARTESIAN_POINT ( 'NONE',  ( -5.451685093518620621E-29, 1.625364664459787233E-29, -1.561424668912875032E-14 ) ) ;
#144 = CC_DESIGN_PERSON_AND_ORGANIZATION_ASSIGNMENT ( #69, #76, ( #85 ) ) ;
#145 = PERSON_AND_ORGANIZATION ( #107, #156 ) ;
#146 = EDGE_LOOP ( 'NONE', ( #27 ) ) ;
#147 = CALENDAR_DATE ( 2021, 6, 12 ) ;
#148 = CYLINDRICAL_SURFACE ( 'NONE', #1, 15.00000000000000000 ) ;
#149 = PERSON_AND_ORGANIZATION ( #107, #156 ) ;
#150 = AXIS2_PLACEMENT_3D ( 'NONE', #91, #141, #118 ) ;
#151 = DIRECTION ( 'NONE',  ( -3.491481338843133355E-15, 1.040949779275249943E-15, -1.000000000000000000 ) ) ;
#152 = PLANE ( 'NONE',  #74 ) ;
#153 = LOCAL_TIME ( 13, 58, 23.00000000000000000, #84 ) ;
#154 = FACE_OUTER_BOUND ( 'NONE', #122, .T. ) ;
#155 = APPROVAL ( #32, 'UNSPECIFIED' ) ;
#156 = ORGANIZATION ( 'UNSPECIFIED', 'UNSPECIFIED', '' ) ;
#157 = ORIENTED_EDGE ( 'NONE', *, *, #133, .F. ) ;
#158 = ORIENTED_EDGE ( 'NONE', *, *, #24, .T. ) ;
#159 = DATE_AND_TIME ( #147, #46 ) ;
#160 = EDGE_LOOP ( 'NONE', ( #96 ) ) ;
#161 = APPROVAL_STATUS ( 'not_yet_approved' ) ;
#162 =( LENGTH_UNIT ( ) NAMED_UNIT ( * ) SI_UNIT ( .MILLI., .METRE. ) );
#163 = ADVANCED_FACE ( 'NONE', ( #67, #138 ), #105, .T. ) ;
#164 = APPROVAL_DATE_TIME ( #112, #120 ) ;
#165 = ORIENTED_EDGE ( 'NONE', *, *, #40, .F. ) ;
#166 = PERSON_AND_ORGANIZATION_ROLE ( 'classification_officer' ) ;
#167 = DATE_AND_TIME ( #100, #68 ) ;
#168 = VERTEX_POINT ( 'NONE', #13 ) ;
#169 = DIRECTION ( 'NONE',  ( 3.633587828410585210E-30, 1.000000000000000000, 1.040834085586084257E-15 ) ) ;
ENDSEC;
END-ISO-10303-21;
