ISO-10303-21;
HEADER;
FILE_DESCRIPTION (( 'STEP AP203' ),
    '1' );
FILE_NAME ('14573.step',
    '2021-10-07T13:46:26',
    ( '' ),
    ( '' ),
    'SwSTEP 2.0',
    'SolidWorks 2019',
    '' );
FILE_SCHEMA (( 'CONFIG_CONTROL_DESIGN' ));
ENDSEC;

DATA;
#1 = ADVANCED_BREP_SHAPE_REPRESENTATION ( '14573', ( #5, #3, #117 ), #101 ) ;
#2 = CARTESIAN_POINT ( 'NONE',  ( 3.142333204958820651E-14, -1.102182119232617911E-15, 9.000000000000001776 ) ) ;
#3 = MANIFOLD_SOLID_BREP ( 'Corps-Déplacer/Copier1[2]', #140 ) ;
#4 = ADVANCED_FACE ( 'NONE', ( #193, #125 ), #31, .T. ) ;
#5 = MANIFOLD_SOLID_BREP ( 'Corps-Déplacer/Copier1[1]', #36 ) ;
#6 = DIRECTION ( 'NONE',  ( -3.491481338843133355E-15, 1.224646799147353207E-16, -1.000000000000000000 ) ) ;
#7 = PERSON_AND_ORGANIZATION ( #103, #14 ) ;
#8 = APPROVAL_STATUS ( 'not_yet_approved' ) ;
#9 = LOCAL_TIME ( 15, 46, 26.00000000000000000, #11 ) ;
#10 = CALENDAR_DATE ( 2021, 7, 10 ) ;
#11 = COORDINATED_UNIVERSAL_TIME_OFFSET ( 1, 0, .AHEAD. ) ;
#12 = ORIENTED_EDGE ( 'NONE', *, *, #46, .F. ) ;
#13 = DIRECTION ( 'NONE',  ( 0.0000000000000000000, 0.0000000000000000000, 1.000000000000000000 ) ) ;
#14 = ORGANIZATION ( 'UNSPECIFIED', 'UNSPECIFIED', '' ) ;
#15 = EDGE_LOOP ( 'NONE', ( #12 ) ) ;
#16 = PERSON_AND_ORGANIZATION_ROLE ( 'design_owner' ) ;
#17 = DIRECTION ( 'NONE',  ( -3.491481338843133355E-15, 1.224646799147353207E-16, -1.000000000000000000 ) ) ;
#18 = CARTESIAN_POINT ( 'NONE',  ( 3.254210531801085155E-14, -1.141423403065439223E-15, 9.320429399400239845 ) ) ;
#19 = DIRECTION ( 'NONE',  ( 0.0000000000000000000, 1.000000000000000000, 0.0000000000000000000 ) ) ;
#20 = DIRECTION ( 'NONE',  ( 0.0000000000000000000, -1.000000000000000000, 0.0000000000000000000 ) ) ;
#21 = EDGE_CURVE ( 'NONE', #79, #79, #90, .T. ) ;
#22 = LOCAL_TIME ( 15, 46, 26.00000000000000000, #161 ) ;
#23 = PRODUCT_DEFINITION ( 'UNKNOWN', '', #69, #208 ) ;
#24 = CIRCLE ( 'NONE', #210, 0.5649999999999997247 ) ;
#25 = EDGE_LOOP ( 'NONE', ( #29 ) ) ;
#26 = PERSON_AND_ORGANIZATION ( #103, #14 ) ;
#27 = APPROVAL_PERSON_ORGANIZATION ( #26, #104, #158 ) ;
#28 = CARTESIAN_POINT ( 'NONE',  ( 0.0000000000000000000, 0.0000000000000000000, 0.0000000000000000000 ) ) ;
#29 = ORIENTED_EDGE ( 'NONE', *, *, #187, .T. ) ;
#30 = CARTESIAN_POINT ( 'NONE',  ( 3.142333204958820651E-14, -2.082055338400569970E-31, 9.000000000000001776 ) ) ;
#31 = CYLINDRICAL_SURFACE ( 'NONE', #156, 0.5649999999999990585 ) ;
#32 = VERTEX_POINT ( 'NONE', #99 ) ;
#33 = DIRECTION ( 'NONE',  ( 4.275831445896958607E-31, 1.000000000000000000, 1.224646799147353207E-16 ) ) ;
#34 = APPROVAL ( #111, 'UNSPECIFIED' ) ;
#35 = DIRECTION ( 'NONE',  ( 0.0000000000000000000, 1.000000000000000000, 0.0000000000000000000 ) ) ;
#36 = CLOSED_SHELL ( 'NONE', ( #118, #110, #64, #38, #70 ) ) ;
#37 = LOCAL_TIME ( 15, 46, 26.00000000000000000, #55 ) ;
#38 = ADVANCED_FACE ( 'NONE', ( #91, #75 ), #204, .T. ) ;
#39 = APPLICATION_CONTEXT ( 'configuration controlled 3d designs of mechanical parts and assemblies' ) ;
#40 = AXIS2_PLACEMENT_3D ( 'NONE', #81, #17, #33 ) ;
#41 = ORIENTED_EDGE ( 'NONE', *, *, #68, .T. ) ;
#42 = APPROVAL_DATE_TIME ( #194, #104 ) ;
#43 =( NAMED_UNIT ( * ) SI_UNIT ( $, .STERADIAN. ) SOLID_ANGLE_UNIT ( ) );
#44 = DIRECTION ( 'NONE',  ( 3.408725565287152698E-31, 1.000000000000000000, 9.594709491022190141E-17 ) ) ;
#45 = CARTESIAN_POINT ( 'NONE',  ( 1.040461438975253866E-13, 0.7499999999999955591, 29.80000000000000426 ) ) ;
#46 = EDGE_CURVE ( 'NONE', #114, #114, #160, .T. ) ;
#47 = VERTEX_POINT ( 'NONE', #164 ) ;
#48 = CARTESIAN_POINT ( 'NONE',  ( 3.142333204958820651E-14, -1.102182119232617911E-15, 9.000000000000001776 ) ) ;
#49 = AXIS2_PLACEMENT_3D ( 'NONE', #18, #203, #20 ) ;
#50 = APPROVAL ( #8, 'UNSPECIFIED' ) ;
#51 = APPLICATION_CONTEXT ( 'configuration controlled 3d designs of mechanical parts and assemblies' ) ;
#52 = COORDINATED_UNIVERSAL_TIME_OFFSET ( 1, 0, .AHEAD. ) ;
#53 = EDGE_LOOP ( 'NONE', ( #196 ) ) ;
#54 = EDGE_LOOP ( 'NONE', ( #181 ) ) ;
#55 = COORDINATED_UNIVERSAL_TIME_OFFSET ( 1, 0, .AHEAD. ) ;
#56 = AXIS2_PLACEMENT_3D ( 'NONE', #67, #166, #100 ) ;
#57 = EDGE_LOOP ( 'NONE', ( #191 ) ) ;
#58 = CARTESIAN_POINT ( 'NONE',  ( 3.142333204958820651E-14, -2.082055338400569970E-31, 9.000000000000001776 ) ) ;
#59 = EDGE_LOOP ( 'NONE', ( #131 ) ) ;
#60 = DIRECTION ( 'NONE',  ( -3.491481338843133355E-15, 1.224646799147353207E-16, -1.000000000000000000 ) ) ;
#61 = EDGE_CURVE ( 'NONE', #32, #32, #85, .T. ) ;
#62 = DATE_AND_TIME ( #94, #22 ) ;
#63 = CARTESIAN_POINT ( 'NONE',  ( 3.142333204958820651E-14, 0.5649999999999986144, 9.000000000000001776 ) ) ;
#64 = ADVANCED_FACE ( 'NONE', ( #115, #223 ), #66, .T. ) ;
#65 = SECURITY_CLASSIFICATION ( '', '', #209 ) ;
#66 = CYLINDRICAL_SURFACE ( 'NONE', #40, 0.7499999999999980016 ) ;
#67 = CARTESIAN_POINT ( 'NONE',  ( 1.047444401652940007E-13, 4.124339402320045473E-33, 30.00000000000000000 ) ) ;
#68 = EDGE_CURVE ( 'NONE', #165, #165, #145, .T. ) ;
#69 = PRODUCT_DEFINITION_FORMATION_WITH_SPECIFIED_SOURCE ( 'ANY', '', #222, .NOT_KNOWN. ) ;
#70 = ADVANCED_FACE ( 'NONE', ( #80 ), #184, .F. ) ;
#71 = LOCAL_TIME ( 15, 46, 26.00000000000000000, #173 ) ;
#72 = APPROVAL_ROLE ( '' ) ;
#73 = AXIS2_PLACEMENT_3D ( 'NONE', #147, #129, #116 ) ;
#74 = SHAPE_DEFINITION_REPRESENTATION ( #201, #1 ) ;
#75 = FACE_BOUND ( 'NONE', #54, .T. ) ;
#76 = ORIENTED_EDGE ( 'NONE', *, *, #89, .T. ) ;
#77 = APPROVAL_DATE_TIME ( #62, #34 ) ;
#78 = MECHANICAL_CONTEXT ( 'NONE', #51, 'mechanical' ) ;
#79 = VERTEX_POINT ( 'NONE', #45 ) ;
#80 = FACE_OUTER_BOUND ( 'NONE', #57, .T. ) ;
#81 = CARTESIAN_POINT ( 'NONE',  ( 0.0000000000000000000, 0.0000000000000000000, 0.0000000000000000000 ) ) ;
#82 = AXIS2_PLACEMENT_3D ( 'NONE', #159, #107, #174 ) ;
#83 = CC_DESIGN_APPROVAL ( #104, ( #69 ) ) ;
#84 = DIRECTION ( 'NONE',  ( 0.0000000000000000000, 1.000000000000000000, 0.0000000000000000000 ) ) ;
#85 = CIRCLE ( 'NONE', #105, 0.5499999999999990452 ) ;
#86 = CARTESIAN_POINT ( 'NONE',  ( 3.254210531801085155E-14, -1.141423403065439223E-15, 9.320429399400239845 ) ) ;
#87 = CALENDAR_DATE ( 2021, 7, 10 ) ;
#88 = CONICAL_SURFACE ( 'NONE', #49, 0.7499999999999966693, 0.5235987755982959291 ) ;
#89 = EDGE_CURVE ( 'NONE', #221, #221, #24, .T. ) ;
#90 = CIRCLE ( 'NONE', #82, 0.7499999999999992228 ) ;
#91 = FACE_OUTER_BOUND ( 'NONE', #93, .T. ) ;
#92 = APPROVAL_STATUS ( 'not_yet_approved' ) ;
#93 = EDGE_LOOP ( 'NONE', ( #127 ) ) ;
#94 = CALENDAR_DATE ( 2021, 7, 10 ) ;
#95 = APPROVAL_ROLE ( '' ) ;
#96 = DIRECTION ( 'NONE',  ( 3.491481338843133355E-15, -1.224646799147353207E-16, 1.000000000000000000 ) ) ;
#97 = CARTESIAN_POINT ( 'NONE',  ( 0.0000000000000000000, 0.0000000000000000000, 0.0000000000000000000 ) ) ;
#98 = APPLICATION_PROTOCOL_DEFINITION ( 'international standard', 'config_control_design', 1994, #39 ) ;
#99 = CARTESIAN_POINT ( 'NONE',  ( 1.047444401652940007E-13, 0.5499999999999953815, 30.00000000000000000 ) ) ;
#100 = DIRECTION ( 'NONE',  ( 4.275831445896958607E-31, 1.000000000000000000, 1.224646799147353207E-16 ) ) ;
#101 =( GEOMETRIC_REPRESENTATION_CONTEXT ( 3 ) GLOBAL_UNCERTAINTY_ASSIGNED_CONTEXT ( ( #106 ) ) GLOBAL_UNIT_ASSIGNED_CONTEXT ( ( #144, #178, #43 ) ) REPRESENTATION_CONTEXT ( 'NONE', 'WORKASPACE' ) );
#102 = CC_DESIGN_SECURITY_CLASSIFICATION ( #65, ( #69 ) ) ;
#103 = PERSON ( 'UNSPECIFIED', 'UNSPECIFIED', 'UNSPECIFIED', ('UNSPECIFIED'), ('UNSPECIFIED'), ('UNSPECIFIED') ) ;
#104 = APPROVAL ( #92, 'UNSPECIFIED' ) ;
#105 = AXIS2_PLACEMENT_3D ( 'NONE', #200, #60, #19 ) ;
#106 = UNCERTAINTY_MEASURE_WITH_UNIT (LENGTH_MEASURE( 1.000000000000000082E-05 ), #144, 'distance_accuracy_value', 'NONE');
#107 = DIRECTION ( 'NONE',  ( -3.491481338843133355E-15, 1.224646799147353207E-16, -1.000000000000000000 ) ) ;
#108 = ORIENTED_EDGE ( 'NONE', *, *, #187, .F. ) ;
#109 = PERSON_AND_ORGANIZATION ( #103, #14 ) ;
#110 = ADVANCED_FACE ( 'NONE', ( #168, #134 ), #88, .T. ) ;
#111 = APPROVAL_STATUS ( 'not_yet_approved' ) ;
#112 = FACE_OUTER_BOUND ( 'NONE', #141, .T. ) ;
#113 = ORIENTED_EDGE ( 'NONE', *, *, #46, .T. ) ;
#114 = VERTEX_POINT ( 'NONE', #183 ) ;
#115 = FACE_OUTER_BOUND ( 'NONE', #15, .T. ) ;
#116 = DIRECTION ( 'NONE',  ( -3.408725565287152698E-31, -1.000000000000000000, -9.594709491022190141E-17 ) ) ;
#117 = AXIS2_PLACEMENT_3D ( 'NONE', #28, #13, #182 ) ;
#118 = ADVANCED_FACE ( 'NONE', ( #136 ), #217, .F. ) ;
#119 = CC_DESIGN_PERSON_AND_ORGANIZATION_ASSIGNMENT ( #123, #207, ( #69 ) ) ;
#120 = CC_DESIGN_APPROVAL ( #50, ( #65 ) ) ;
#121 = DIRECTION ( 'NONE',  ( 0.0000000000000000000, 1.000000000000000000, 0.0000000000000000000 ) ) ;
#122 = DATE_TIME_ROLE ( 'classification_date' ) ;
#123 = PERSON_AND_ORGANIZATION ( #103, #14 ) ;
#124 = DATE_AND_TIME ( #10, #175 ) ;
#125 = FACE_OUTER_BOUND ( 'NONE', #211, .T. ) ;
#126 = AXIS2_PLACEMENT_3D ( 'NONE', #2, #180, #35 ) ;
#127 = ORIENTED_EDGE ( 'NONE', *, *, #21, .F. ) ;
#128 = DATE_TIME_ROLE ( 'creation_date' ) ;
#129 = DIRECTION ( 'NONE',  ( 3.491481338843133355E-15, -1.224646799147353207E-16, 1.000000000000000000 ) ) ;
#130 = PLANE ( 'NONE',  #167 ) ;
#131 = ORIENTED_EDGE ( 'NONE', *, *, #21, .T. ) ;
#132 = PERSON_AND_ORGANIZATION ( #103, #14 ) ;
#133 = CARTESIAN_POINT ( 'NONE',  ( 3.142333204958820651E-14, 0.5649999999999986144, 9.000000000000001776 ) ) ;
#134 = FACE_OUTER_BOUND ( 'NONE', #219, .T. ) ;
#135 = CC_DESIGN_PERSON_AND_ORGANIZATION_ASSIGNMENT ( #149, #16, ( #222 ) ) ;
#136 = FACE_OUTER_BOUND ( 'NONE', #215, .T. ) ;
#137 = CC_DESIGN_APPROVAL ( #34, ( #23 ) ) ;
#138 = AXIS2_PLACEMENT_3D ( 'NONE', #143, #6, #121 ) ;
#139 = PERSON_AND_ORGANIZATION_ROLE ( 'creator' ) ;
#140 = CLOSED_SHELL ( 'NONE', ( #154, #4, #205 ) ) ;
#141 = EDGE_LOOP ( 'NONE', ( #148 ) ) ;
#142 = PERSON_AND_ORGANIZATION ( #103, #14 ) ;
#143 = CARTESIAN_POINT ( 'NONE',  ( 1.047444401652940007E-13, -3.673940397442059178E-15, 30.00000000000000000 ) ) ;
#144 =( LENGTH_UNIT ( ) NAMED_UNIT ( * ) SI_UNIT ( .MILLI., .METRE. ) );
#145 = CIRCLE ( 'NONE', #126, 0.5649999999999997247 ) ;
#146 = EDGE_LOOP ( 'NONE', ( #108 ) ) ;
#147 = CARTESIAN_POINT ( 'NONE',  ( 1.185309905797969827E-15, -4.157507491115798705E-17, 0.3394862497505743981 ) ) ;
#148 = ORIENTED_EDGE ( 'NONE', *, *, #89, .F. ) ;
#149 = PERSON_AND_ORGANIZATION ( #103, #14 ) ;
#150 = DIRECTION ( 'NONE',  ( -3.491481338843133355E-15, 1.224646799147353207E-16, -1.000000000000000000 ) ) ;
#151 = DIRECTION ( 'NONE',  ( 3.491481338843133355E-15, -1.224646799147353207E-16, 1.000000000000000000 ) ) ;
#152 = CC_DESIGN_PERSON_AND_ORGANIZATION_ASSIGNMENT ( #142, #157, ( #65 ) ) ;
#153 = DIRECTION ( 'NONE',  ( 0.0000000000000000000, 1.000000000000000000, 0.0000000000000000000 ) ) ;
#154 = ADVANCED_FACE ( 'NONE', ( #162 ), #172, .T. ) ;
#155 = DATE_AND_TIME ( #87, #71 ) ;
#156 = AXIS2_PLACEMENT_3D ( 'NONE', #97, #177, #163 ) ;
#157 = PERSON_AND_ORGANIZATION_ROLE ( 'classification_officer' ) ;
#158 = APPROVAL_ROLE ( '' ) ;
#159 = CARTESIAN_POINT ( 'NONE',  ( 1.040461438975253866E-13, -3.649447461459112464E-15, 29.80000000000000426 ) ) ;
#160 = CIRCLE ( 'NONE', #189, 0.7499999999999966693 ) ;
#161 = COORDINATED_UNIVERSAL_TIME_OFFSET ( 1, 0, .AHEAD. ) ;
#162 = FACE_OUTER_BOUND ( 'NONE', #25, .T. ) ;
#163 = DIRECTION ( 'NONE',  ( 4.275831445896959482E-31, 1.000000000000000000, 1.224646799147353454E-16 ) ) ;
#164 = CARTESIAN_POINT ( 'NONE',  ( 1.185309905797970024E-15, 0.5649999999999983924, 0.3394862497505744536 ) ) ;
#165 = VERTEX_POINT ( 'NONE', #133 ) ;
#166 = DIRECTION ( 'NONE',  ( -3.491481338843133355E-15, 1.224646799147353207E-16, -1.000000000000000000 ) ) ;
#167 = AXIS2_PLACEMENT_3D ( 'NONE', #30, #96, #197 ) ;
#168 = FACE_BOUND ( 'NONE', #53, .T. ) ;
#169 = PRODUCT_RELATED_PRODUCT_CATEGORY ( 'detail', '', ( #222 ) ) ;
#170 = APPROVAL_PERSON_ORGANIZATION ( #7, #50, #72 ) ;
#171 = CC_DESIGN_PERSON_AND_ORGANIZATION_ASSIGNMENT ( #132, #176, ( #23 ) ) ;
#172 = CONICAL_SURFACE ( 'NONE', #73, 0.5649999999999983924, 1.029744258676649649 ) ;
#173 = COORDINATED_UNIVERSAL_TIME_OFFSET ( 1, 0, .AHEAD. ) ;
#174 = DIRECTION ( 'NONE',  ( 0.0000000000000000000, 1.000000000000000000, 0.0000000000000000000 ) ) ;
#175 = LOCAL_TIME ( 15, 46, 26.00000000000000000, #52 ) ;
#176 = PERSON_AND_ORGANIZATION_ROLE ( 'creator' ) ;
#177 = DIRECTION ( 'NONE',  ( -3.491481338843133355E-15, 1.224646799147353207E-16, -1.000000000000000000 ) ) ;
#178 =( NAMED_UNIT ( * ) PLANE_ANGLE_UNIT ( ) SI_UNIT ( $, .RADIAN. ) );
#179 = DATE_AND_TIME ( #216, #37 ) ;
#180 = DIRECTION ( 'NONE',  ( -3.491481338843133355E-15, 1.224646799147353207E-16, -1.000000000000000000 ) ) ;
#181 = ORIENTED_EDGE ( 'NONE', *, *, #61, .T. ) ;
#182 = DIRECTION ( 'NONE',  ( 1.000000000000000000, 0.0000000000000000000, 0.0000000000000000000 ) ) ;
#183 = CARTESIAN_POINT ( 'NONE',  ( 3.254210531801085155E-14, 0.7499999999999954481, 9.320429399400239845 ) ) ;
#184 = PLANE ( 'NONE',  #56 ) ;
#185 = DIRECTION ( 'NONE',  ( -3.491481338843133355E-15, 1.224646799147353207E-16, -1.000000000000000000 ) ) ;
#186 = AXIS2_PLACEMENT_3D ( 'NONE', #58, #151, #202 ) ;
#187 = EDGE_CURVE ( 'NONE', #47, #47, #199, .T. ) ;
#188 = CC_DESIGN_PERSON_AND_ORGANIZATION_ASSIGNMENT ( #109, #139, ( #69 ) ) ;
#189 = AXIS2_PLACEMENT_3D ( 'NONE', #86, #218, #153 ) ;
#190 = APPROVAL_DATE_TIME ( #155, #50 ) ;
#191 = ORIENTED_EDGE ( 'NONE', *, *, #61, .F. ) ;
#192 = CALENDAR_DATE ( 2021, 7, 10 ) ;
#193 = FACE_OUTER_BOUND ( 'NONE', #146, .T. ) ;
#194 = DATE_AND_TIME ( #192, #9 ) ;
#195 = CARTESIAN_POINT ( 'NONE',  ( 1.185309905797969827E-15, -4.157507491115798705E-17, 0.3394862497505743981 ) ) ;
#196 = ORIENTED_EDGE ( 'NONE', *, *, #68, .F. ) ;
#197 = DIRECTION ( 'NONE',  ( -4.275831445896958607E-31, -1.000000000000000000, -1.224646799147353207E-16 ) ) ;
#198 = AXIS2_PLACEMENT_3D ( 'NONE', #195, #185, #44 ) ;
#199 = CIRCLE ( 'NONE', #198, 0.5649999999999983924 ) ;
#200 = CARTESIAN_POINT ( 'NONE',  ( 1.047444401652940007E-13, -3.673940397442059178E-15, 30.00000000000000000 ) ) ;
#201 = PRODUCT_DEFINITION_SHAPE ( 'NONE', 'NONE',  #23 ) ;
#202 = DIRECTION ( 'NONE',  ( -4.275831445896958607E-31, -1.000000000000000000, -1.224646799147353207E-16 ) ) ;
#203 = DIRECTION ( 'NONE',  ( 3.491481338843133355E-15, -1.224646799147353207E-16, 1.000000000000000000 ) ) ;
#204 = CONICAL_SURFACE ( 'NONE', #138, 0.5499999999999990452, 0.7853981633974604915 ) ;
#205 = ADVANCED_FACE ( 'NONE', ( #112 ), #130, .T. ) ;
#206 = CC_DESIGN_DATE_AND_TIME_ASSIGNMENT ( #179, #128, ( #23 ) ) ;
#207 = PERSON_AND_ORGANIZATION_ROLE ( 'design_supplier' ) ;
#208 = DESIGN_CONTEXT ( 'detailed design', #39, 'design' ) ;
#209 = SECURITY_CLASSIFICATION_LEVEL ( 'unclassified' ) ;
#210 = AXIS2_PLACEMENT_3D ( 'NONE', #48, #150, #84 ) ;
#211 = EDGE_LOOP ( 'NONE', ( #76 ) ) ;
#212 = CC_DESIGN_DATE_AND_TIME_ASSIGNMENT ( #124, #122, ( #65 ) ) ;
#213 = APPLICATION_PROTOCOL_DEFINITION ( 'international standard', 'config_control_design', 1994, #51 ) ;
#214 = APPROVAL_PERSON_ORGANIZATION ( #220, #34, #95 ) ;
#215 = EDGE_LOOP ( 'NONE', ( #41 ) ) ;
#216 = CALENDAR_DATE ( 2021, 7, 10 ) ;
#217 = PLANE ( 'NONE',  #186 ) ;
#218 = DIRECTION ( 'NONE',  ( -3.491481338843133355E-15, 1.224646799147353207E-16, -1.000000000000000000 ) ) ;
#219 = EDGE_LOOP ( 'NONE', ( #113 ) ) ;
#220 = PERSON_AND_ORGANIZATION ( #103, #14 ) ;
#221 = VERTEX_POINT ( 'NONE', #63 ) ;
#222 = PRODUCT ( '14573', '14573', '', ( #78 ) ) ;
#223 = FACE_OUTER_BOUND ( 'NONE', #59, .T. ) ;
ENDSEC;
END-ISO-10303-21;
