ISO-10303-21;
HEADER;
FILE_DESCRIPTION (( 'STEP AP203' ),
    '1' );
FILE_NAME ('14254.step',
    '2021-12-06T12:58:22',
    ( '' ),
    ( '' ),
    'SwSTEP 2.0',
    'SolidWorks 2019',
    '' );
FILE_SCHEMA (( 'CONFIG_CONTROL_DESIGN' ));
ENDSEC;

DATA;
#1 = ORIENTED_EDGE ( 'NONE', *, *, #106, .T. ) ;
#2 = APPROVAL_STATUS ( 'not_yet_approved' ) ;
#3 = ORGANIZATION ( 'UNSPECIFIED', 'UNSPECIFIED', '' ) ;
#4 = APPROVAL_ROLE ( '' ) ;
#5 = EDGE_CURVE ( 'NONE', #114, #114, #85, .T. ) ;
#6 = COORDINATED_UNIVERSAL_TIME_OFFSET ( 1, 0, .AHEAD. ) ;
#7 = PRODUCT ( '14254', '14254', '', ( #167 ) ) ;
#8 = PLANE ( 'NONE',  #125 ) ;
#9 = CIRCLE ( 'NONE', #128, 4.000000000000000000 ) ;
#10 = DIRECTION ( 'NONE',  ( 3.491481338843133355E-15, -4.163799117100999080E-16, 1.000000000000000000 ) ) ;
#11 = CC_DESIGN_DATE_AND_TIME_ASSIGNMENT ( #46, #158, ( #149 ) ) ;
#12 = DIRECTION ( 'NONE',  ( 1.453782691604965471E-30, 1.000000000000000000, 4.163799117100999080E-16 ) ) ;
#13 = DIRECTION ( 'NONE',  ( 1.453782691604965296E-30, 1.000000000000000000, 4.163799117100998587E-16 ) ) ;
#14 = ORIENTED_EDGE ( 'NONE', *, *, #106, .F. ) ;
#15 = PERSON_AND_ORGANIZATION_ROLE ( 'classification_officer' ) ;
#16 = CARTESIAN_POINT ( 'NONE',  ( 1.745740669421561747E-15, -2.081899558550493624E-16, 0.4999999999999986122 ) ) ;
#17 = CALENDAR_DATE ( 2021, 6, 12 ) ;
#18 = PRODUCT_DEFINITION ( 'UNKNOWN', '', #147, #112 ) ;
#19 = DATE_AND_TIME ( #17, #74 ) ;
#20 = ADVANCED_BREP_SHAPE_REPRESENTATION ( '14254', ( #142, #103 ), #135 ) ;
#21 = CC_DESIGN_PERSON_AND_ORGANIZATION_ASSIGNMENT ( #93, #15, ( #149 ) ) ;
#22 = CARTESIAN_POINT ( 'NONE',  ( 1.745740669421566678E-15, 12.50000000000000000, 0.5000000000000000000 ) ) ;
#23 = VERTEX_POINT ( 'NONE', #52 ) ;
#24 = ADVANCED_FACE ( 'NONE', ( #91, #144 ), #82, .T. ) ;
#25 =( LENGTH_UNIT ( ) NAMED_UNIT ( * ) SI_UNIT ( .MILLI., .METRE. ) );
#26 = DIRECTION ( 'NONE',  ( -3.491481338843133355E-15, 4.163799117100999080E-16, -1.000000000000000000 ) ) ;
#27 = AXIS2_PLACEMENT_3D ( 'NONE', #77, #26, #12 ) ;
#28 = ORIENTED_EDGE ( 'NONE', *, *, #5, .T. ) ;
#29 = EDGE_CURVE ( 'NONE', #35, #35, #47, .T. ) ;
#30 = EDGE_LOOP ( 'NONE', ( #53 ) ) ;
#31 = SHAPE_DEFINITION_REPRESENTATION ( #101, #20 ) ;
#32 = ORIENTED_EDGE ( 'NONE', *, *, #165, .T. ) ;
#33 = SECURITY_CLASSIFICATION_LEVEL ( 'unclassified' ) ;
#34 = DIRECTION ( 'NONE',  ( 1.000000000000000000, 0.0000000000000000000, 0.0000000000000000000 ) ) ;
#35 = VERTEX_POINT ( 'NONE', #22 ) ;
#36 = CARTESIAN_POINT ( 'NONE',  ( 0.0000000000000000000, 12.50000000000000000, 0.0000000000000000000 ) ) ;
#37 = DIRECTION ( 'NONE',  ( 1.453782691604965471E-30, 1.000000000000000000, 4.163799117100999080E-16 ) ) ;
#38 = CC_DESIGN_APPROVAL ( #78, ( #149 ) ) ;
#39 = APPROVAL ( #2, 'UNSPECIFIED' ) ;
#40 = COORDINATED_UNIVERSAL_TIME_OFFSET ( 1, 0, .AHEAD. ) ;
#41 = ORIENTED_EDGE ( 'NONE', *, *, #29, .F. ) ;
#42 = APPROVAL_DATE_TIME ( #19, #94 ) ;
#43 = DIRECTION ( 'NONE',  ( 1.444447458290426890E-30, 1.000000000000000000, 4.065758146820641628E-16 ) ) ;
#44 = ADVANCED_FACE ( 'NONE', ( #63, #76 ), #88, .F. ) ;
#45 = CALENDAR_DATE ( 2021, 6, 12 ) ;
#46 = DATE_AND_TIME ( #143, #159 ) ;
#47 = CIRCLE ( 'NONE', #67, 12.50000000000000000 ) ;
#48 = CLOSED_SHELL ( 'NONE', ( #118, #24, #146, #44 ) ) ;
#49 = PLANE ( 'NONE',  #155 ) ;
#50 = DIRECTION ( 'NONE',  ( -3.491481338843133355E-15, 4.163799117100999080E-16, -1.000000000000000000 ) ) ;
#51 = DIRECTION ( 'NONE',  ( 0.0000000000000000000, 0.0000000000000000000, 1.000000000000000000 ) ) ;
#52 = CARTESIAN_POINT ( 'NONE',  ( 0.0000000000000000000, 4.000000000000000000, 0.0000000000000000000 ) ) ;
#53 = ORIENTED_EDGE ( 'NONE', *, *, #5, .F. ) ;
#54 = EDGE_LOOP ( 'NONE', ( #116 ) ) ;
#55 = APPROVAL_STATUS ( 'not_yet_approved' ) ;
#56 = APPROVAL_STATUS ( 'not_yet_approved' ) ;
#57 = DATE_TIME_ROLE ( 'creation_date' ) ;
#58 = AXIS2_PLACEMENT_3D ( 'NONE', #133, #61, #126 ) ;
#59 = CARTESIAN_POINT ( 'NONE',  ( -6.178576439321102725E-30, 4.000000000000000000, -1.769614624767924942E-15 ) ) ;
#60 = PERSON ( 'UNSPECIFIED', 'UNSPECIFIED', 'UNSPECIFIED', ('UNSPECIFIED'), ('UNSPECIFIED'), ('UNSPECIFIED') ) ;
#61 = DIRECTION ( 'NONE',  ( -3.491481338843133355E-15, 4.163799117100999080E-16, -1.000000000000000000 ) ) ;
#62 = CC_DESIGN_PERSON_AND_ORGANIZATION_ASSIGNMENT ( #90, #68, ( #147 ) ) ;
#63 = FACE_OUTER_BOUND ( 'NONE', #120, .T. ) ;
#64 = CC_DESIGN_PERSON_AND_ORGANIZATION_ASSIGNMENT ( #89, #139, ( #7 ) ) ;
#65 = VERTEX_POINT ( 'NONE', #36 ) ;
#66 = EDGE_LOOP ( 'NONE', ( #14 ) ) ;
#67 = AXIS2_PLACEMENT_3D ( 'NONE', #137, #151, #138 ) ;
#68 = PERSON_AND_ORGANIZATION_ROLE ( 'design_supplier' ) ;
#69 = ORIENTED_EDGE ( 'NONE', *, *, #165, .F. ) ;
#70 = CALENDAR_DATE ( 2021, 6, 12 ) ;
#71 = APPROVAL_ROLE ( '' ) ;
#72 = CC_DESIGN_PERSON_AND_ORGANIZATION_ASSIGNMENT ( #119, #104, ( #18 ) ) ;
#73 = CARTESIAN_POINT ( 'NONE',  ( 1.745740669421567467E-15, 4.000000000000000000, 0.5000000000000002220 ) ) ;
#74 = LOCAL_TIME ( 13, 58, 22.00000000000000000, #109 ) ;
#75 = CC_DESIGN_DATE_AND_TIME_ASSIGNMENT ( #122, #57, ( #18 ) ) ;
#76 = FACE_OUTER_BOUND ( 'NONE', #30, .T. ) ;
#77 = CARTESIAN_POINT ( 'NONE',  ( 0.0000000000000000000, 0.0000000000000000000, 0.0000000000000000000 ) ) ;
#78 = APPROVAL ( #55, 'UNSPECIFIED' ) ;
#79 = FACE_BOUND ( 'NONE', #157, .T. ) ;
#80 = APPROVAL_PERSON_ORGANIZATION ( #84, #94, #121 ) ;
#81 = COORDINATED_UNIVERSAL_TIME_OFFSET ( 1, 0, .AHEAD. ) ;
#82 = CYLINDRICAL_SURFACE ( 'NONE', #58, 12.50000000000000000 ) ;
#83 = CALENDAR_DATE ( 2021, 6, 12 ) ;
#84 = PERSON_AND_ORGANIZATION ( #60, #3 ) ;
#85 = CIRCLE ( 'NONE', #150, 4.000000000000000000 ) ;
#86 = APPROVAL_PERSON_ORGANIZATION ( #96, #78, #71 ) ;
#87 =( NAMED_UNIT ( * ) SI_UNIT ( $, .STERADIAN. ) SOLID_ANGLE_UNIT ( ) );
#88 = CYLINDRICAL_SURFACE ( 'NONE', #27, 4.000000000000000000 ) ;
#89 = PERSON_AND_ORGANIZATION ( #60, #3 ) ;
#90 = PERSON_AND_ORGANIZATION ( #60, #3 ) ;
#91 = FACE_OUTER_BOUND ( 'NONE', #54, .T. ) ;
#92 = LOCAL_TIME ( 13, 58, 22.00000000000000000, #6 ) ;
#93 = PERSON_AND_ORGANIZATION ( #60, #3 ) ;
#94 = APPROVAL ( #56, 'UNSPECIFIED' ) ;
#95 = APPROVAL_DATE_TIME ( #160, #39 ) ;
#96 = PERSON_AND_ORGANIZATION ( #60, #3 ) ;
#97 = APPROVAL_PERSON_ORGANIZATION ( #132, #39, #4 ) ;
#98 = APPLICATION_CONTEXT ( 'configuration controlled 3d designs of mechanical parts and assemblies' ) ;
#99 = LOCAL_TIME ( 13, 58, 22.00000000000000000, #134 ) ;
#100 = CARTESIAN_POINT ( 'NONE',  ( 1.745740669421560958E-15, 4.000000000000000000, 0.4999999999999983902 ) ) ;
#101 = PRODUCT_DEFINITION_SHAPE ( 'NONE', 'NONE',  #18 ) ;
#102 = FACE_OUTER_BOUND ( 'NONE', #105, .T. ) ;
#103 = AXIS2_PLACEMENT_3D ( 'NONE', #153, #51, #34 ) ;
#104 = PERSON_AND_ORGANIZATION_ROLE ( 'creator' ) ;
#105 = EDGE_LOOP ( 'NONE', ( #1 ) ) ;
#106 = EDGE_CURVE ( 'NONE', #65, #65, #107, .T. ) ;
#107 = CIRCLE ( 'NONE', #162, 12.50000000000000000 ) ;
#108 = APPLICATION_PROTOCOL_DEFINITION ( 'international standard', 'config_control_design', 1994, #98 ) ;
#109 = COORDINATED_UNIVERSAL_TIME_OFFSET ( 1, 0, .AHEAD. ) ;
#110 = CC_DESIGN_PERSON_AND_ORGANIZATION_ASSIGNMENT ( #145, #161, ( #147 ) ) ;
#111 = CC_DESIGN_APPROVAL ( #39, ( #147 ) ) ;
#112 = DESIGN_CONTEXT ( 'detailed design', #98, 'design' ) ;
#113 = DIRECTION ( 'NONE',  ( 1.453782691604965296E-30, 1.000000000000000000, 4.163799117100999080E-16 ) ) ;
#114 = VERTEX_POINT ( 'NONE', #73 ) ;
#115 =( NAMED_UNIT ( * ) PLANE_ANGLE_UNIT ( ) SI_UNIT ( $, .RADIAN. ) );
#116 = ORIENTED_EDGE ( 'NONE', *, *, #29, .T. ) ;
#117 = DIRECTION ( 'NONE',  ( -3.491481338843133355E-15, 4.163799117100999080E-16, -1.000000000000000000 ) ) ;
#118 = ADVANCED_FACE ( 'NONE', ( #102, #166 ), #8, .T. ) ;
#119 = PERSON_AND_ORGANIZATION ( #60, #3 ) ;
#120 = EDGE_LOOP ( 'NONE', ( #32 ) ) ;
#121 = APPROVAL_ROLE ( '' ) ;
#122 = DATE_AND_TIME ( #70, #99 ) ;
#123 = LOCAL_TIME ( 13, 58, 22.00000000000000000, #40 ) ;
#124 = APPLICATION_PROTOCOL_DEFINITION ( 'international standard', 'config_control_design', 1994, #168 ) ;
#125 = AXIS2_PLACEMENT_3D ( 'NONE', #59, #164, #113 ) ;
#126 = DIRECTION ( 'NONE',  ( 1.453782691604965296E-30, 1.000000000000000000, 4.163799117100998587E-16 ) ) ;
#127 = FACE_OUTER_BOUND ( 'NONE', #141, .T. ) ;
#128 = AXIS2_PLACEMENT_3D ( 'NONE', #136, #152, #37 ) ;
#129 = EDGE_LOOP ( 'NONE', ( #69 ) ) ;
#130 = CC_DESIGN_SECURITY_CLASSIFICATION ( #149, ( #147 ) ) ;
#131 = PRODUCT_RELATED_PRODUCT_CATEGORY ( 'detail', '', ( #7 ) ) ;
#132 = PERSON_AND_ORGANIZATION ( #60, #3 ) ;
#133 = CARTESIAN_POINT ( 'NONE',  ( 0.0000000000000000000, 0.0000000000000000000, 0.0000000000000000000 ) ) ;
#134 = COORDINATED_UNIVERSAL_TIME_OFFSET ( 1, 0, .AHEAD. ) ;
#135 =( GEOMETRIC_REPRESENTATION_CONTEXT ( 3 ) GLOBAL_UNCERTAINTY_ASSIGNED_CONTEXT ( ( #148 ) ) GLOBAL_UNIT_ASSIGNED_CONTEXT ( ( #25, #115, #87 ) ) REPRESENTATION_CONTEXT ( 'NONE', 'WORKASPACE' ) );
#136 = CARTESIAN_POINT ( 'NONE',  ( -5.815130766419861883E-30, 6.934889235028424149E-31, -1.665519646840399632E-15 ) ) ;
#137 = CARTESIAN_POINT ( 'NONE',  ( 1.745740669421548731E-15, -2.081899558550478093E-16, 0.4999999999999947820 ) ) ;
#138 = DIRECTION ( 'NONE',  ( 1.448299318179201361E-30, 1.000000000000000000, 4.163336342344337027E-16 ) ) ;
#139 = PERSON_AND_ORGANIZATION_ROLE ( 'design_owner' ) ;
#140 = APPROVAL_DATE_TIME ( #156, #78 ) ;
#141 = EDGE_LOOP ( 'NONE', ( #41 ) ) ;
#142 = MANIFOLD_SOLID_BREP ( 'Corps-Déplacer/Copier1', #48 ) ;
#143 = CALENDAR_DATE ( 2021, 6, 12 ) ;
#144 = FACE_OUTER_BOUND ( 'NONE', #66, .T. ) ;
#145 = PERSON_AND_ORGANIZATION ( #60, #3 ) ;
#146 = ADVANCED_FACE ( 'NONE', ( #79, #127 ), #49, .T. ) ;
#147 = PRODUCT_DEFINITION_FORMATION_WITH_SPECIFIED_SOURCE ( 'ANY', '', #7, .NOT_KNOWN. ) ;
#148 = UNCERTAINTY_MEASURE_WITH_UNIT (LENGTH_MEASURE( 1.000000000000000082E-05 ), #25, 'distance_accuracy_value', 'NONE');
#149 = SECURITY_CLASSIFICATION ( '', '', #33 ) ;
#150 = AXIS2_PLACEMENT_3D ( 'NONE', #16, #117, #43 ) ;
#151 = DIRECTION ( 'NONE',  ( -3.491481338843133355E-15, 4.163799117100999080E-16, -1.000000000000000000 ) ) ;
#152 = DIRECTION ( 'NONE',  ( -3.491481338843133355E-15, 4.163799117100999080E-16, -1.000000000000000000 ) ) ;
#153 = CARTESIAN_POINT ( 'NONE',  ( 0.0000000000000000000, 0.0000000000000000000, 0.0000000000000000000 ) ) ;
#154 = CARTESIAN_POINT ( 'NONE',  ( -1.817228364506206593E-29, 2.167152885946382393E-30, -5.204748896376248530E-15 ) ) ;
#155 = AXIS2_PLACEMENT_3D ( 'NONE', #100, #10, #169 ) ;
#156 = DATE_AND_TIME ( #83, #123 ) ;
#157 = EDGE_LOOP ( 'NONE', ( #28 ) ) ;
#158 = DATE_TIME_ROLE ( 'classification_date' ) ;
#159 = LOCAL_TIME ( 13, 58, 22.00000000000000000, #81 ) ;
#160 = DATE_AND_TIME ( #45, #92 ) ;
#161 = PERSON_AND_ORGANIZATION_ROLE ( 'creator' ) ;
#162 = AXIS2_PLACEMENT_3D ( 'NONE', #154, #50, #13 ) ;
#163 = CC_DESIGN_APPROVAL ( #94, ( #18 ) ) ;
#164 = DIRECTION ( 'NONE',  ( -3.491481338843133355E-15, 4.163799117100999080E-16, -1.000000000000000000 ) ) ;
#165 = EDGE_CURVE ( 'NONE', #23, #23, #9, .T. ) ;
#166 = FACE_BOUND ( 'NONE', #129, .T. ) ;
#167 = MECHANICAL_CONTEXT ( 'NONE', #168, 'mechanical' ) ;
#168 = APPLICATION_CONTEXT ( 'configuration controlled 3d designs of mechanical parts and assemblies' ) ;
#169 = DIRECTION ( 'NONE',  ( -1.453782691604965296E-30, -1.000000000000000000, -4.163799117100999080E-16 ) ) ;
ENDSEC;
END-ISO-10303-21;
