ISO-10303-21;
HEADER;
FILE_DESCRIPTION (( 'STEP AP203' ),
    '1' );
FILE_NAME ('14115.step',
    '2021-12-06T12:58:21',
    ( '' ),
    ( '' ),
    'SwSTEP 2.0',
    'SolidWorks 2019',
    '' );
FILE_SCHEMA (( 'CONFIG_CONTROL_DESIGN' ));
ENDSEC;

DATA;
#1 = AXIS2_PLACEMENT_3D ( 'NONE', #83, #47, #102 ) ;
#2 = CARTESIAN_POINT ( 'NONE',  ( 0.0000000000000000000, 0.0000000000000000000, 0.0000000000000000000 ) ) ;
#3 = APPROVAL_DATE_TIME ( #81, #97 ) ;
#4 = APPROVAL_DATE_TIME ( #135, #12 ) ;
#5 = PERSON_AND_ORGANIZATION_ROLE ( 'design_supplier' ) ;
#6 = DESIGN_CONTEXT ( 'detailed design', #18, 'design' ) ;
#7 = EDGE_LOOP ( 'NONE', ( #111 ) ) ;
#8 = DIRECTION ( 'NONE',  ( -3.491481338843133355E-15, 1.156610865861388989E-16, -1.000000000000000000 ) ) ;
#9 = CC_DESIGN_PERSON_AND_ORGANIZATION_ASSIGNMENT ( #42, #119, ( #129 ) ) ;
#10 = APPROVAL_PERSON_ORGANIZATION ( #148, #12, #96 ) ;
#11 = FACE_OUTER_BOUND ( 'NONE', #36, .T. ) ;
#12 = APPROVAL ( #95, 'UNSPECIFIED' ) ;
#13 = EDGE_LOOP ( 'NONE', ( #89 ) ) ;
#14 = CC_DESIGN_APPROVAL ( #66, ( #63 ) ) ;
#15 = CARTESIAN_POINT ( 'NONE',  ( 0.0000000000000000000, 40.00000000000000000, 0.0000000000000000000 ) ) ;
#16 = AXIS2_PLACEMENT_3D ( 'NONE', #127, #142, #168 ) ;
#17 = CARTESIAN_POINT ( 'NONE',  ( 6.284666409917635306E-15, -2.081899558550498801E-16, 1.799999999999998712 ) ) ;
#18 = APPLICATION_CONTEXT ( 'configuration controlled 3d designs of mechanical parts and assemblies' ) ;
#19 = PERSON_AND_ORGANIZATION ( #143, #106 ) ;
#20 = LOCAL_TIME ( 13, 58, 21.00000000000000000, #147 ) ;
#21 =( NAMED_UNIT ( * ) SI_UNIT ( $, .STERADIAN. ) SOLID_ANGLE_UNIT ( ) );
#22 = DATE_AND_TIME ( #159, #78 ) ;
#23 = ADVANCED_FACE ( 'NONE', ( #165, #11 ), #164, .T. ) ;
#24 = FACE_OUTER_BOUND ( 'NONE', #72, .T. ) ;
#25 = ORIENTED_EDGE ( 'NONE', *, *, #61, .T. ) ;
#26 = DIRECTION ( 'NONE',  ( -3.491481338843133355E-15, 1.156610865861388989E-16, -1.000000000000000000 ) ) ;
#27 = DIRECTION ( 'NONE',  ( 4.038285254458237808E-31, 1.000000000000000000, 1.156610865861388989E-16 ) ) ;
#28 = CC_DESIGN_PERSON_AND_ORGANIZATION_ASSIGNMENT ( #69, #67, ( #33 ) ) ;
#29 = CALENDAR_DATE ( 2021, 6, 12 ) ;
#30 = PERSON_AND_ORGANIZATION ( #143, #106 ) ;
#31 = APPLICATION_PROTOCOL_DEFINITION ( 'international standard', 'config_control_design', 1994, #116 ) ;
#32 = APPROVAL_ROLE ( '' ) ;
#33 = PRODUCT ( '14115', '14115', '', ( #53 ) ) ;
#34 = DIRECTION ( 'NONE',  ( -3.491481338843133355E-15, 1.156610865861388989E-16, -1.000000000000000000 ) ) ;
#35 = UNCERTAINTY_MEASURE_WITH_UNIT (LENGTH_MEASURE( 1.000000000000000082E-05 ), #70, 'distance_accuracy_value', 'NONE');
#36 = EDGE_LOOP ( 'NONE', ( #122 ) ) ;
#37 = CARTESIAN_POINT ( 'NONE',  ( 0.0000000000000000000, 0.0000000000000000000, 0.0000000000000000000 ) ) ;
#38 = PRODUCT_RELATED_PRODUCT_CATEGORY ( 'detail', '', ( #33 ) ) ;
#39 = DIRECTION ( 'NONE',  ( -3.491481338843133355E-15, 1.156610865861388989E-16, -1.000000000000000000 ) ) ;
#40 = VERTEX_POINT ( 'NONE', #50 ) ;
#41 = DIRECTION ( 'NONE',  ( 1.000000000000000000, 0.0000000000000000000, 0.0000000000000000000 ) ) ;
#42 = PERSON_AND_ORGANIZATION ( #143, #106 ) ;
#43 = APPROVAL_ROLE ( '' ) ;
#44 = DATE_TIME_ROLE ( 'creation_date' ) ;
#45 = DATE_AND_TIME ( #114, #155 ) ;
#46 = ADVANCED_FACE ( 'NONE', ( #60, #109 ), #162, .T. ) ;
#47 = DIRECTION ( 'NONE',  ( 3.491481338843133355E-15, -1.156610865861388989E-16, 1.000000000000000000 ) ) ;
#48 = ORIENTED_EDGE ( 'NONE', *, *, #125, .F. ) ;
#49 = AXIS2_PLACEMENT_3D ( 'NONE', #149, #8, #136 ) ;
#50 = CARTESIAN_POINT ( 'NONE',  ( 6.284666409917640040E-15, 40.00000000000000000, 1.800000000000000044 ) ) ;
#51 = CC_DESIGN_APPROVAL ( #12, ( #128 ) ) ;
#52 = PERSON_AND_ORGANIZATION_ROLE ( 'classification_officer' ) ;
#53 = MECHANICAL_CONTEXT ( 'NONE', #116, 'mechanical' ) ;
#54 = COORDINATED_UNIVERSAL_TIME_OFFSET ( 1, 0, .AHEAD. ) ;
#55 = AXIS2_PLACEMENT_3D ( 'NONE', #57, #71, #121 ) ;
#56 = PERSON_AND_ORGANIZATION_ROLE ( 'creator' ) ;
#57 = CARTESIAN_POINT ( 'NONE',  ( 6.284666409917624262E-15, -2.081899558550494856E-16, 1.799999999999995381 ) ) ;
#58 = CC_DESIGN_APPROVAL ( #97, ( #129 ) ) ;
#59 = FACE_OUTER_BOUND ( 'NONE', #138, .T. ) ;
#60 = FACE_OUTER_BOUND ( 'NONE', #101, .T. ) ;
#61 = EDGE_CURVE ( 'NONE', #40, #40, #74, .T. ) ;
#62 = PRODUCT_DEFINITION_SHAPE ( 'NONE', 'NONE',  #128 ) ;
#63 = SECURITY_CLASSIFICATION ( '', '', #146 ) ;
#64 = DIRECTION ( 'NONE',  ( 4.202028969572151271E-31, 1.000000000000000000, 1.182766006347823109E-16 ) ) ;
#65 = CC_DESIGN_DATE_AND_TIME_ASSIGNMENT ( #45, #157, ( #63 ) ) ;
#66 = APPROVAL ( #79, 'UNSPECIFIED' ) ;
#67 = PERSON_AND_ORGANIZATION_ROLE ( 'design_owner' ) ;
#68 = AXIS2_PLACEMENT_3D ( 'NONE', #141, #26, #75 ) ;
#69 = PERSON_AND_ORGANIZATION ( #143, #106 ) ;
#70 =( LENGTH_UNIT ( ) NAMED_UNIT ( * ) SI_UNIT ( .MILLI., .METRE. ) );
#71 = DIRECTION ( 'NONE',  ( -3.491481338843133355E-15, 1.156610865861388989E-16, -1.000000000000000000 ) ) ;
#72 = EDGE_LOOP ( 'NONE', ( #86 ) ) ;
#73 = CC_DESIGN_DATE_AND_TIME_ASSIGNMENT ( #77, #44, ( #128 ) ) ;
#74 = CIRCLE ( 'NONE', #55, 40.00000000000000000 ) ;
#75 = DIRECTION ( 'NONE',  ( 4.038285254458237808E-31, 1.000000000000000000, 1.156610865861388989E-16 ) ) ;
#76 = EDGE_CURVE ( 'NONE', #126, #126, #87, .T. ) ;
#77 = DATE_AND_TIME ( #160, #110 ) ;
#78 = LOCAL_TIME ( 13, 58, 21.00000000000000000, #54 ) ;
#79 = APPROVAL_STATUS ( 'not_yet_approved' ) ;
#80 = APPLICATION_PROTOCOL_DEFINITION ( 'international standard', 'config_control_design', 1994, #18 ) ;
#81 = DATE_AND_TIME ( #130, #20 ) ;
#82 = LOCAL_TIME ( 13, 58, 21.00000000000000000, #133 ) ;
#83 = CARTESIAN_POINT ( 'NONE',  ( 6.284666409917633729E-15, 11.00000000000000000, 1.799999999999998268 ) ) ;
#84 = MANIFOLD_SOLID_BREP ( 'Corps-Déplacer/Copier1', #163 ) ;
#85 = CC_DESIGN_PERSON_AND_ORGANIZATION_ASSIGNMENT ( #108, #52, ( #63 ) ) ;
#86 = ORIENTED_EDGE ( 'NONE', *, *, #139, .T. ) ;
#87 = CIRCLE ( 'NONE', #49, 40.00000000000000000 ) ;
#88 = ADVANCED_FACE ( 'NONE', ( #24, #59 ), #150, .F. ) ;
#89 = ORIENTED_EDGE ( 'NONE', *, *, #125, .T. ) ;
#90 = APPROVAL_PERSON_ORGANIZATION ( #98, #97, #43 ) ;
#91 = FACE_OUTER_BOUND ( 'NONE', #7, .T. ) ;
#92 = ADVANCED_BREP_SHAPE_REPRESENTATION ( '14115', ( #84, #140 ), #166 ) ;
#93 = VERTEX_POINT ( 'NONE', #103 ) ;
#94 = SHAPE_DEFINITION_REPRESENTATION ( #62, #92 ) ;
#95 = APPROVAL_STATUS ( 'not_yet_approved' ) ;
#96 = APPROVAL_ROLE ( '' ) ;
#97 = APPROVAL ( #132, 'UNSPECIFIED' ) ;
#98 = PERSON_AND_ORGANIZATION ( #143, #106 ) ;
#99 = AXIS2_PLACEMENT_3D ( 'NONE', #37, #137, #27 ) ;
#100 = EDGE_LOOP ( 'NONE', ( #112 ) ) ;
#101 = EDGE_LOOP ( 'NONE', ( #25 ) ) ;
#102 = DIRECTION ( 'NONE',  ( -4.038285254458237808E-31, -1.000000000000000000, -1.156610865861388989E-16 ) ) ;
#103 = CARTESIAN_POINT ( 'NONE',  ( 0.0000000000000000000, 11.00000000000000000, 0.0000000000000000000 ) ) ;
#104 = VERTEX_POINT ( 'NONE', #154 ) ;
#105 = COORDINATED_UNIVERSAL_TIME_OFFSET ( 1, 0, .AHEAD. ) ;
#106 = ORGANIZATION ( 'UNSPECIFIED', 'UNSPECIFIED', '' ) ;
#107 = PERSON_AND_ORGANIZATION ( #143, #106 ) ;
#108 = PERSON_AND_ORGANIZATION ( #143, #106 ) ;
#109 = FACE_OUTER_BOUND ( 'NONE', #151, .T. ) ;
#110 = LOCAL_TIME ( 13, 58, 21.00000000000000000, #105 ) ;
#111 = ORIENTED_EDGE ( 'NONE', *, *, #76, .T. ) ;
#112 = ORIENTED_EDGE ( 'NONE', *, *, #139, .F. ) ;
#113 = CARTESIAN_POINT ( 'NONE',  ( 0.0000000000000000000, 0.0000000000000000000, 0.0000000000000000000 ) ) ;
#114 = CALENDAR_DATE ( 2021, 6, 12 ) ;
#115 = DIRECTION ( 'NONE',  ( 0.0000000000000000000, 0.0000000000000000000, 1.000000000000000000 ) ) ;
#116 = APPLICATION_CONTEXT ( 'configuration controlled 3d designs of mechanical parts and assemblies' ) ;
#117 =( NAMED_UNIT ( * ) PLANE_ANGLE_UNIT ( ) SI_UNIT ( $, .RADIAN. ) );
#118 = AXIS2_PLACEMENT_3D ( 'NONE', #113, #34, #120 ) ;
#119 = PERSON_AND_ORGANIZATION_ROLE ( 'creator' ) ;
#120 = DIRECTION ( 'NONE',  ( 4.038285254458238684E-31, 1.000000000000000000, 1.156610865861388989E-16 ) ) ;
#121 = DIRECTION ( 'NONE',  ( 4.044452883213195291E-31, 1.000000000000000000, 1.138412281109779656E-16 ) ) ;
#122 = ORIENTED_EDGE ( 'NONE', *, *, #61, .F. ) ;
#123 = ORIENTED_EDGE ( 'NONE', *, *, #76, .F. ) ;
#124 = CC_DESIGN_SECURITY_CLASSIFICATION ( #63, ( #129 ) ) ;
#125 = EDGE_CURVE ( 'NONE', #104, #104, #144, .T. ) ;
#126 = VERTEX_POINT ( 'NONE', #15 ) ;
#127 = CARTESIAN_POINT ( 'NONE',  ( -5.855513618964446223E-30, 11.00000000000000000, -1.677085755499014257E-15 ) ) ;
#128 = PRODUCT_DEFINITION ( 'UNKNOWN', '', #129, #6 ) ;
#129 = PRODUCT_DEFINITION_FORMATION_WITH_SPECIFIED_SOURCE ( 'ANY', '', #33, .NOT_KNOWN. ) ;
#130 = CALENDAR_DATE ( 2021, 6, 12 ) ;
#131 = ADVANCED_FACE ( 'NONE', ( #91, #169 ), #145, .T. ) ;
#132 = APPROVAL_STATUS ( 'not_yet_approved' ) ;
#133 = COORDINATED_UNIVERSAL_TIME_OFFSET ( 1, 0, .AHEAD. ) ;
#134 = CC_DESIGN_PERSON_AND_ORGANIZATION_ASSIGNMENT ( #19, #5, ( #129 ) ) ;
#135 = DATE_AND_TIME ( #29, #82 ) ;
#136 = DIRECTION ( 'NONE',  ( 4.038285254458238684E-31, 1.000000000000000000, 1.156610865861388989E-16 ) ) ;
#137 = DIRECTION ( 'NONE',  ( -3.491481338843133355E-15, 1.156610865861388989E-16, -1.000000000000000000 ) ) ;
#138 = EDGE_LOOP ( 'NONE', ( #48 ) ) ;
#139 = EDGE_CURVE ( 'NONE', #93, #93, #152, .T. ) ;
#140 = AXIS2_PLACEMENT_3D ( 'NONE', #2, #115, #41 ) ;
#141 = CARTESIAN_POINT ( 'NONE',  ( -4.442113779904061589E-30, 1.471523564531495026E-31, -1.272271952447527839E-15 ) ) ;
#142 = DIRECTION ( 'NONE',  ( -3.491481338843133355E-15, 1.156610865861388989E-16, -1.000000000000000000 ) ) ;
#143 = PERSON ( 'UNSPECIFIED', 'UNSPECIFIED', 'UNSPECIFIED', ('UNSPECIFIED'), ('UNSPECIFIED'), ('UNSPECIFIED') ) ;
#144 = CIRCLE ( 'NONE', #158, 11.00000000000000000 ) ;
#145 = PLANE ( 'NONE',  #16 ) ;
#146 = SECURITY_CLASSIFICATION_LEVEL ( 'unclassified' ) ;
#147 = COORDINATED_UNIVERSAL_TIME_OFFSET ( 1, 0, .AHEAD. ) ;
#148 = PERSON_AND_ORGANIZATION ( #143, #106 ) ;
#149 = CARTESIAN_POINT ( 'NONE',  ( -1.615314101783295404E-29, 5.350994780114527844E-31, -4.626443463445556352E-15 ) ) ;
#150 = CYLINDRICAL_SURFACE ( 'NONE', #99, 11.00000000000000000 ) ;
#151 = EDGE_LOOP ( 'NONE', ( #123 ) ) ;
#152 = CIRCLE ( 'NONE', #68, 11.00000000000000000 ) ;
#153 = APPROVAL_PERSON_ORGANIZATION ( #30, #66, #32 ) ;
#154 = CARTESIAN_POINT ( 'NONE',  ( 6.284666409917640040E-15, 11.00000000000000000, 1.800000000000000044 ) ) ;
#155 = LOCAL_TIME ( 13, 58, 21.00000000000000000, #161 ) ;
#156 = APPROVAL_DATE_TIME ( #22, #66 ) ;
#157 = DATE_TIME_ROLE ( 'classification_date' ) ;
#158 = AXIS2_PLACEMENT_3D ( 'NONE', #17, #39, #64 ) ;
#159 = CALENDAR_DATE ( 2021, 6, 12 ) ;
#160 = CALENDAR_DATE ( 2021, 6, 12 ) ;
#161 = COORDINATED_UNIVERSAL_TIME_OFFSET ( 1, 0, .AHEAD. ) ;
#162 = CYLINDRICAL_SURFACE ( 'NONE', #118, 40.00000000000000000 ) ;
#163 = CLOSED_SHELL ( 'NONE', ( #131, #46, #23, #88 ) ) ;
#164 = PLANE ( 'NONE',  #1 ) ;
#165 = FACE_BOUND ( 'NONE', #13, .T. ) ;
#166 =( GEOMETRIC_REPRESENTATION_CONTEXT ( 3 ) GLOBAL_UNCERTAINTY_ASSIGNED_CONTEXT ( ( #35 ) ) GLOBAL_UNIT_ASSIGNED_CONTEXT ( ( #70, #117, #21 ) ) REPRESENTATION_CONTEXT ( 'NONE', 'WORKASPACE' ) );
#167 = CC_DESIGN_PERSON_AND_ORGANIZATION_ASSIGNMENT ( #107, #56, ( #128 ) ) ;
#168 = DIRECTION ( 'NONE',  ( 4.038285254458237808E-31, 1.000000000000000000, 1.156610865861388989E-16 ) ) ;
#169 = FACE_BOUND ( 'NONE', #100, .T. ) ;
ENDSEC;
END-ISO-10303-21;
