ISO-10303-21;
HEADER;
FILE_DESCRIPTION (( 'STEP AP203' ),
    '1' );
FILE_NAME ('122.step',
    '2021-10-06T11:26:01',
    ( '' ),
    ( '' ),
    'SwSTEP 2.0',
    'SolidWorks 2019',
    '' );
FILE_SCHEMA (( 'CONFIG_CONTROL_DESIGN' ));
ENDSEC;

DATA;
#1 = CC_DESIGN_PERSON_AND_ORGANIZATION_ASSIGNMENT ( #15, #2, ( #154 ) ) ;
#2 = PERSON_AND_ORGANIZATION_ROLE ( 'creator' ) ;
#3 = CONICAL_SURFACE ( 'NONE', #124, 0.9500000000000001776, 0.7853981633974452814 ) ;
#4 = PRODUCT_DEFINITION ( 'UNKNOWN', '', #154, #20 ) ;
#5 = ORIENTED_EDGE ( 'NONE', *, *, #134, .F. ) ;
#6 = AXIS2_PLACEMENT_3D ( 'NONE', #167, #176, #141 ) ;
#7 = DIRECTION ( 'NONE',  ( 4.275831445896958607E-31, 1.000000000000000000, 1.224646799147353207E-16 ) ) ;
#8 = DIRECTION ( 'NONE',  ( -3.491481338843133355E-15, 1.224646799147353207E-16, -1.000000000000000000 ) ) ;
#9 = APPROVAL_STATUS ( 'not_yet_approved' ) ;
#10 = CIRCLE ( 'NONE', #114, 1.249999999999994893 ) ;
#11 = DIRECTION ( 'NONE',  ( 0.0000000000000000000, 1.000000000000000000, 0.0000000000000000000 ) ) ;
#12 = ADVANCED_FACE ( 'NONE', ( #97 ), #83, .T. ) ;
#13 = CC_DESIGN_PERSON_AND_ORGANIZATION_ASSIGNMENT ( #153, #187, ( #79 ) ) ;
#14 = DIRECTION ( 'NONE',  ( 0.0000000000000000000, 0.0000000000000000000, 1.000000000000000000 ) ) ;
#15 = PERSON_AND_ORGANIZATION ( #173, #128 ) ;
#16 = EDGE_LOOP ( 'NONE', ( #138 ) ) ;
#17 = PERSON_AND_ORGANIZATION ( #173, #128 ) ;
#18 = AXIS2_PLACEMENT_3D ( 'NONE', #180, #36, #40 ) ;
#19 = EDGE_LOOP ( 'NONE', ( #52 ) ) ;
#20 = DESIGN_CONTEXT ( 'detailed design', #22, 'design' ) ;
#21 = DIRECTION ( 'NONE',  ( -3.081487911019590064E-31, -1.000000000000000000, -8.673617379884071217E-17 ) ) ;
#22 = APPLICATION_CONTEXT ( 'configuration controlled 3d designs of mechanical parts and assemblies' ) ;
#23 = CALENDAR_DATE ( 2021, 6, 10 ) ;
#24 = EDGE_LOOP ( 'NONE', ( #149 ) ) ;
#25 = DIRECTION ( 'NONE',  ( -3.491481338843133355E-15, 1.224646799147353207E-16, -1.000000000000000000 ) ) ;
#26 = AXIS2_PLACEMENT_3D ( 'NONE', #155, #94, #11 ) ;
#27 = DIRECTION ( 'NONE',  ( 4.275831445896959482E-31, 1.000000000000000000, 1.224646799147353207E-16 ) ) ;
#28 = LOCAL_TIME ( 13, 26, 1.000000000000000000, #186 ) ;
#29 = APPLICATION_PROTOCOL_DEFINITION ( 'international standard', 'config_control_design', 1994, #22 ) ;
#30 = CARTESIAN_POINT ( 'NONE',  ( 5.586370142149013368E-14, 1.249999999999994893, 16.00000000000000000 ) ) ;
#31 = SECURITY_CLASSIFICATION_LEVEL ( 'unclassified' ) ;
#32 = DIRECTION ( 'NONE',  ( 3.491481338843133355E-15, -1.224646799147353207E-16, 1.000000000000000000 ) ) ;
#33 = APPROVAL_DATE_TIME ( #101, #71 ) ;
#34 = SECURITY_CLASSIFICATION ( '', '', #31 ) ;
#35 = CIRCLE ( 'NONE', #26, 1.249999999999996669 ) ;
#36 = DIRECTION ( 'NONE',  ( -3.491481338843133355E-15, 1.224646799147353207E-16, -1.000000000000000000 ) ) ;
#37 = DIRECTION ( 'NONE',  ( 0.0000000000000000000, 1.000000000000000000, 0.0000000000000000000 ) ) ;
#38 = MANIFOLD_SOLID_BREP ( 'Corps-Déplacer/Copier1[1]', #158 ) ;
#39 = EDGE_LOOP ( 'NONE', ( #5 ) ) ;
#40 = DIRECTION ( 'NONE',  ( 0.0000000000000000000, 1.000000000000000000, 0.0000000000000000000 ) ) ;
#41 = AXIS2_PLACEMENT_3D ( 'NONE', #157, #14, #106 ) ;
#42 =( NAMED_UNIT ( * ) PLANE_ANGLE_UNIT ( ) SI_UNIT ( $, .RADIAN. ) );
#43 = CARTESIAN_POINT ( 'NONE',  ( 5.586370142149013368E-14, 1.249999999999994893, 16.00000000000000000 ) ) ;
#44 = CARTESIAN_POINT ( 'NONE',  ( 1.490862531686017753E-13, 1.249999999999994893, 42.69999999999999574 ) ) ;
#45 = PERSON_AND_ORGANIZATION_ROLE ( 'creator' ) ;
#46 = PERSON_AND_ORGANIZATION ( #173, #128 ) ;
#47 = PRODUCT_DEFINITION_SHAPE ( 'NONE', 'NONE',  #4 ) ;
#48 = COORDINATED_UNIVERSAL_TIME_OFFSET ( 1, 0, .AHEAD. ) ;
#49 = AXIS2_PLACEMENT_3D ( 'NONE', #100, #162, #21 ) ;
#50 = CYLINDRICAL_SURFACE ( 'NONE', #6, 1.249999999999996003 ) ;
#51 = ADVANCED_FACE ( 'NONE', ( #177 ), #55, .F. ) ;
#52 = ORIENTED_EDGE ( 'NONE', *, *, #64, .T. ) ;
#53 =( GEOMETRIC_REPRESENTATION_CONTEXT ( 3 ) GLOBAL_UNCERTAINTY_ASSIGNED_CONTEXT ( ( #130 ) ) GLOBAL_UNIT_ASSIGNED_CONTEXT ( ( #168, #42, #142 ) ) REPRESENTATION_CONTEXT ( 'NONE', 'WORKASPACE' ) );
#54 = EDGE_LOOP ( 'NONE', ( #136 ) ) ;
#55 = PLANE ( 'NONE',  #111 ) ;
#56 = APPLICATION_CONTEXT ( 'configuration controlled 3d designs of mechanical parts and assemblies' ) ;
#57 = DIRECTION ( 'NONE',  ( 0.0000000000000000000, 1.000000000000000000, 0.0000000000000000000 ) ) ;
#58 = VERTEX_POINT ( 'NONE', #30 ) ;
#59 = COORDINATED_UNIVERSAL_TIME_OFFSET ( 1, 0, .AHEAD. ) ;
#60 = APPROVAL_DATE_TIME ( #202, #159 ) ;
#61 = PERSON_AND_ORGANIZATION ( #173, #128 ) ;
#62 = CC_DESIGN_APPROVAL ( #159, ( #4 ) ) ;
#63 = CIRCLE ( 'NONE', #183, 1.249999999999996669 ) ;
#64 = EDGE_CURVE ( 'NONE', #200, #200, #144, .T. ) ;
#65 = FACE_OUTER_BOUND ( 'NONE', #102, .T. ) ;
#66 = SHAPE_DEFINITION_REPRESENTATION ( #47, #185 ) ;
#67 = EDGE_LOOP ( 'NONE', ( #93 ) ) ;
#68 = ORIENTED_EDGE ( 'NONE', *, *, #64, .F. ) ;
#69 = DIRECTION ( 'NONE',  ( -3.491481338843133355E-15, 1.224646799147353207E-16, -1.000000000000000000 ) ) ;
#70 = FACE_OUTER_BOUND ( 'NONE', #39, .T. ) ;
#71 = APPROVAL ( #199, 'UNSPECIFIED' ) ;
#72 = DATE_TIME_ROLE ( 'creation_date' ) ;
#73 = LOCAL_TIME ( 13, 26, 1.000000000000000000, #59 ) ;
#74 = FACE_BOUND ( 'NONE', #19, .T. ) ;
#75 = CALENDAR_DATE ( 2021, 6, 10 ) ;
#76 = EDGE_CURVE ( 'NONE', #107, #107, #133, .T. ) ;
#77 = EDGE_CURVE ( 'NONE', #112, #112, #63, .T. ) ;
#78 = CONICAL_SURFACE ( 'NONE', #49, 1.249999999999994893, 1.134464013796309123 ) ;
#79 = PRODUCT ( '122', '122', '', ( #126 ) ) ;
#80 = PERSON_AND_ORGANIZATION ( #173, #128 ) ;
#81 = CC_DESIGN_SECURITY_CLASSIFICATION ( #34, ( #154 ) ) ;
#82 = PLANE ( 'NONE',  #190 ) ;
#83 = PLANE ( 'NONE',  #169 ) ;
#84 = CARTESIAN_POINT ( 'NONE',  ( 5.586370142149013368E-14, -1.959434878635765131E-15, 16.00000000000000000 ) ) ;
#85 = CARTESIAN_POINT ( 'NONE',  ( 0.0000000000000000000, 0.0000000000000000000, 0.0000000000000000000 ) ) ;
#86 = DIRECTION ( 'NONE',  ( 3.081487911019590064E-31, 1.000000000000000000, 8.673617379884071217E-17 ) ) ;
#87 = ADVANCED_FACE ( 'NONE', ( #70, #151 ), #50, .T. ) ;
#88 = CLOSED_SHELL ( 'NONE', ( #140, #87, #12 ) ) ;
#89 = PERSON_AND_ORGANIZATION ( #173, #128 ) ;
#90 = APPROVAL ( #163, 'UNSPECIFIED' ) ;
#91 = FACE_OUTER_BOUND ( 'NONE', #123, .T. ) ;
#92 = AXIS2_PLACEMENT_3D ( 'NONE', #85, #69, #27 ) ;
#93 = ORIENTED_EDGE ( 'NONE', *, *, #201, .T. ) ;
#94 = DIRECTION ( 'NONE',  ( -3.491481338843133355E-15, 1.224646799147353207E-16, -1.000000000000000000 ) ) ;
#95 = COORDINATED_UNIVERSAL_TIME_OFFSET ( 1, 0, .AHEAD. ) ;
#96 = PRODUCT_RELATED_PRODUCT_CATEGORY ( 'detail', '', ( #79 ) ) ;
#97 = FACE_OUTER_BOUND ( 'NONE', #16, .T. ) ;
#98 = CC_DESIGN_PERSON_AND_ORGANIZATION_ASSIGNMENT ( #61, #45, ( #4 ) ) ;
#99 = APPROVAL_PERSON_ORGANIZATION ( #135, #90, #189 ) ;
#100 = CARTESIAN_POINT ( 'NONE',  ( 2.035130608259794031E-15, -7.138277262217779787E-17, 0.5828845726937534888 ) ) ;
#101 = DATE_AND_TIME ( #137, #28 ) ;
#102 = EDGE_LOOP ( 'NONE', ( #160 ) ) ;
#103 = CYLINDRICAL_SURFACE ( 'NONE', #92, 1.249999999999998446 ) ;
#104 = LOCAL_TIME ( 13, 26, 1.000000000000000000, #95 ) ;
#105 = CARTESIAN_POINT ( 'NONE',  ( 1.490862531686017753E-13, -5.229241832359197610E-15, 42.69999999999999574 ) ) ;
#106 = DIRECTION ( 'NONE',  ( 1.000000000000000000, 0.0000000000000000000, 0.0000000000000000000 ) ) ;
#107 = VERTEX_POINT ( 'NONE', #44 ) ;
#108 = CARTESIAN_POINT ( 'NONE',  ( 1.501336975702547217E-13, -5.265981236333618470E-15, 43.00000000000000000 ) ) ;
#109 = CC_DESIGN_APPROVAL ( #90, ( #34 ) ) ;
#110 = DATE_AND_TIME ( #129, #73 ) ;
#111 = AXIS2_PLACEMENT_3D ( 'NONE', #120, #182, #7 ) ;
#112 = VERTEX_POINT ( 'NONE', #43 ) ;
#113 = CC_DESIGN_DATE_AND_TIME_ASSIGNMENT ( #110, #72, ( #4 ) ) ;
#114 = AXIS2_PLACEMENT_3D ( 'NONE', #197, #8, #86 ) ;
#115 = DATE_AND_TIME ( #23, #178 ) ;
#116 = DIRECTION ( 'NONE',  ( -4.275831445896958607E-31, -1.000000000000000000, -1.224646799147353207E-16 ) ) ;
#117 = CARTESIAN_POINT ( 'NONE',  ( 5.586370142149013368E-14, 9.373498641636556679E-33, 16.00000000000000000 ) ) ;
#118 = APPROVAL_PERSON_ORGANIZATION ( #46, #71, #125 ) ;
#119 = DATE_TIME_ROLE ( 'classification_date' ) ;
#120 = CARTESIAN_POINT ( 'NONE',  ( 1.501336975702547217E-13, 7.123858967643745635E-33, 43.00000000000000000 ) ) ;
#121 = DIRECTION ( 'NONE',  ( -3.491481338843133355E-15, 1.224646799147353207E-16, -1.000000000000000000 ) ) ;
#122 = ADVANCED_FACE ( 'NONE', ( #139 ), #82, .F. ) ;
#123 = EDGE_LOOP ( 'NONE', ( #148 ) ) ;
#124 = AXIS2_PLACEMENT_3D ( 'NONE', #108, #171, #203 ) ;
#125 = APPROVAL_ROLE ( '' ) ;
#126 = MECHANICAL_CONTEXT ( 'NONE', #56, 'mechanical' ) ;
#127 = CARTESIAN_POINT ( 'NONE',  ( 1.501336975702547217E-13, 0.9499999999999948486, 43.00000000000000000 ) ) ;
#128 = ORGANIZATION ( 'UNSPECIFIED', 'UNSPECIFIED', '' ) ;
#129 = CALENDAR_DATE ( 2021, 6, 10 ) ;
#130 = UNCERTAINTY_MEASURE_WITH_UNIT (LENGTH_MEASURE( 1.000000000000000082E-05 ), #168, 'distance_accuracy_value', 'NONE');
#131 = ADVANCED_FACE ( 'NONE', ( #196, #181 ), #103, .T. ) ;
#132 = LOCAL_TIME ( 13, 26, 1.000000000000000000, #188 ) ;
#133 = CIRCLE ( 'NONE', #143, 1.250000000000000000 ) ;
#134 = EDGE_CURVE ( 'NONE', #172, #172, #10, .T. ) ;
#135 = PERSON_AND_ORGANIZATION ( #173, #128 ) ;
#136 = ORIENTED_EDGE ( 'NONE', *, *, #77, .T. ) ;
#137 = CALENDAR_DATE ( 2021, 6, 10 ) ;
#138 = ORIENTED_EDGE ( 'NONE', *, *, #201, .F. ) ;
#139 = FACE_OUTER_BOUND ( 'NONE', #54, .T. ) ;
#140 = ADVANCED_FACE ( 'NONE', ( #65 ), #78, .T. ) ;
#141 = DIRECTION ( 'NONE',  ( 4.275831445896958607E-31, 1.000000000000000000, 1.224646799147352961E-16 ) ) ;
#142 =( NAMED_UNIT ( * ) SI_UNIT ( $, .STERADIAN. ) SOLID_ANGLE_UNIT ( ) );
#143 = AXIS2_PLACEMENT_3D ( 'NONE', #105, #121, #37 ) ;
#144 = CIRCLE ( 'NONE', #18, 0.9500000000000001776 ) ;
#145 = APPROVAL_DATE_TIME ( #115, #90 ) ;
#146 = PERSON_AND_ORGANIZATION_ROLE ( 'classification_officer' ) ;
#147 = CARTESIAN_POINT ( 'NONE',  ( 5.586370142149013368E-14, 9.373498641636556679E-33, 16.00000000000000000 ) ) ;
#148 = ORIENTED_EDGE ( 'NONE', *, *, #76, .F. ) ;
#149 = ORIENTED_EDGE ( 'NONE', *, *, #77, .F. ) ;
#150 = DIRECTION ( 'NONE',  ( 3.491481338843133355E-15, -1.224646799147353207E-16, 1.000000000000000000 ) ) ;
#151 = FACE_OUTER_BOUND ( 'NONE', #67, .T. ) ;
#152 = CC_DESIGN_PERSON_AND_ORGANIZATION_ASSIGNMENT ( #17, #175, ( #154 ) ) ;
#153 = PERSON_AND_ORGANIZATION ( #173, #128 ) ;
#154 = PRODUCT_DEFINITION_FORMATION_WITH_SPECIFIED_SOURCE ( 'ANY', '', #79, .NOT_KNOWN. ) ;
#155 = CARTESIAN_POINT ( 'NONE',  ( 5.586370142149013368E-14, -1.959434878635765131E-15, 16.00000000000000000 ) ) ;
#156 = APPROVAL_ROLE ( '' ) ;
#157 = CARTESIAN_POINT ( 'NONE',  ( 0.0000000000000000000, 0.0000000000000000000, 0.0000000000000000000 ) ) ;
#158 = CLOSED_SHELL ( 'NONE', ( #122, #131, #198, #51 ) ) ;
#159 = APPROVAL ( #9, 'UNSPECIFIED' ) ;
#160 = ORIENTED_EDGE ( 'NONE', *, *, #134, .T. ) ;
#161 = DATE_AND_TIME ( #193, #104 ) ;
#162 = DIRECTION ( 'NONE',  ( 3.491481338843133355E-15, -1.224646799147353207E-16, 1.000000000000000000 ) ) ;
#163 = APPROVAL_STATUS ( 'not_yet_approved' ) ;
#164 = ORIENTED_EDGE ( 'NONE', *, *, #76, .T. ) ;
#165 = EDGE_LOOP ( 'NONE', ( #68 ) ) ;
#166 = APPROVAL_PERSON_ORGANIZATION ( #89, #159, #156 ) ;
#167 = CARTESIAN_POINT ( 'NONE',  ( 0.0000000000000000000, 0.0000000000000000000, 0.0000000000000000000 ) ) ;
#168 =( LENGTH_UNIT ( ) NAMED_UNIT ( * ) SI_UNIT ( .MILLI., .METRE. ) );
#169 = AXIS2_PLACEMENT_3D ( 'NONE', #117, #150, #191 ) ;
#170 = CARTESIAN_POINT ( 'NONE',  ( 2.035130608259794425E-15, 1.249999999999994893, 0.5828845726937535998 ) ) ;
#171 = DIRECTION ( 'NONE',  ( -3.491481338843133355E-15, 1.224646799147353207E-16, -1.000000000000000000 ) ) ;
#172 = VERTEX_POINT ( 'NONE', #170 ) ;
#173 = PERSON ( 'UNSPECIFIED', 'UNSPECIFIED', 'UNSPECIFIED', ('UNSPECIFIED'), ('UNSPECIFIED'), ('UNSPECIFIED') ) ;
#174 = MANIFOLD_SOLID_BREP ( 'Corps-Déplacer/Copier1[2]', #88 ) ;
#175 = PERSON_AND_ORGANIZATION_ROLE ( 'design_supplier' ) ;
#176 = DIRECTION ( 'NONE',  ( -3.491481338843133355E-15, 1.224646799147353207E-16, -1.000000000000000000 ) ) ;
#177 = FACE_OUTER_BOUND ( 'NONE', #165, .T. ) ;
#178 = LOCAL_TIME ( 13, 26, 1.000000000000000000, #48 ) ;
#179 = CC_DESIGN_PERSON_AND_ORGANIZATION_ASSIGNMENT ( #80, #146, ( #34 ) ) ;
#180 = CARTESIAN_POINT ( 'NONE',  ( 1.501336975702547217E-13, -5.265981236333618470E-15, 43.00000000000000000 ) ) ;
#181 = FACE_OUTER_BOUND ( 'NONE', #194, .T. ) ;
#182 = DIRECTION ( 'NONE',  ( -3.491481338843133355E-15, 1.224646799147353207E-16, -1.000000000000000000 ) ) ;
#183 = AXIS2_PLACEMENT_3D ( 'NONE', #84, #25, #57 ) ;
#184 = APPLICATION_PROTOCOL_DEFINITION ( 'international standard', 'config_control_design', 1994, #56 ) ;
#185 = ADVANCED_BREP_SHAPE_REPRESENTATION ( '122', ( #38, #174, #41 ), #53 ) ;
#186 = COORDINATED_UNIVERSAL_TIME_OFFSET ( 1, 0, .AHEAD. ) ;
#187 = PERSON_AND_ORGANIZATION_ROLE ( 'design_owner' ) ;
#188 = COORDINATED_UNIVERSAL_TIME_OFFSET ( 1, 0, .AHEAD. ) ;
#189 = APPROVAL_ROLE ( '' ) ;
#190 = AXIS2_PLACEMENT_3D ( 'NONE', #147, #32, #116 ) ;
#191 = DIRECTION ( 'NONE',  ( -4.275831445896958607E-31, -1.000000000000000000, -1.224646799147353207E-16 ) ) ;
#192 = CC_DESIGN_DATE_AND_TIME_ASSIGNMENT ( #161, #119, ( #34 ) ) ;
#193 = CALENDAR_DATE ( 2021, 6, 10 ) ;
#194 = EDGE_LOOP ( 'NONE', ( #164 ) ) ;
#195 = CC_DESIGN_APPROVAL ( #71, ( #154 ) ) ;
#196 = FACE_OUTER_BOUND ( 'NONE', #24, .T. ) ;
#197 = CARTESIAN_POINT ( 'NONE',  ( 2.035130608259794031E-15, -7.138277262217779787E-17, 0.5828845726937534888 ) ) ;
#198 = ADVANCED_FACE ( 'NONE', ( #91, #74 ), #3, .T. ) ;
#199 = APPROVAL_STATUS ( 'not_yet_approved' ) ;
#200 = VERTEX_POINT ( 'NONE', #127 ) ;
#201 = EDGE_CURVE ( 'NONE', #58, #58, #35, .T. ) ;
#202 = DATE_AND_TIME ( #75, #132 ) ;
#203 = DIRECTION ( 'NONE',  ( 0.0000000000000000000, 1.000000000000000000, 0.0000000000000000000 ) ) ;
ENDSEC;
END-ISO-10303-21;
