ISO-10303-21;
HEADER;
FILE_DESCRIPTION (( 'STEP AP203' ),
    '1' );
FILE_NAME ('121.step',
    '2021-10-06T11:26:00',
    ( '' ),
    ( '' ),
    'SwSTEP 2.0',
    'SolidWorks 2019',
    '' );
FILE_SCHEMA (( 'CONFIG_CONTROL_DESIGN' ));
ENDSEC;

DATA;
#1 = PERSON_AND_ORGANIZATION ( #152, #69 ) ;
#2 = ORIENTED_EDGE ( 'NONE', *, *, #22, .T. ) ;
#3 = PERSON_AND_ORGANIZATION ( #152, #69 ) ;
#4 = CONICAL_SURFACE ( 'NONE', #117, 1.199999999999995071, 1.134464013796309123 ) ;
#5 = DESIGN_CONTEXT ( 'detailed design', #90, 'design' ) ;
#6 = CC_DESIGN_APPROVAL ( #29, ( #151 ) ) ;
#7 = AXIS2_PLACEMENT_3D ( 'NONE', #122, #203, #184 ) ;
#8 = ORIENTED_EDGE ( 'NONE', *, *, #18, .T. ) ;
#9 = CONICAL_SURFACE ( 'NONE', #131, 0.9000000000000004663, 0.7853981633974336241 ) ;
#10 = DIRECTION ( 'NONE',  ( 0.0000000000000000000, 1.000000000000000000, 0.0000000000000000000 ) ) ;
#11 = EDGE_CURVE ( 'NONE', #145, #145, #84, .T. ) ;
#12 = CARTESIAN_POINT ( 'NONE',  ( 1.501336975702547217E-13, -5.265981236333618470E-15, 43.00000000000000000 ) ) ;
#13 = PERSON_AND_ORGANIZATION ( #152, #69 ) ;
#14 = DIRECTION ( 'NONE',  ( -3.491481338843133355E-15, 1.224646799147353207E-16, -1.000000000000000000 ) ) ;
#15 = DATE_TIME_ROLE ( 'creation_date' ) ;
#16 = EDGE_LOOP ( 'NONE', ( #88 ) ) ;
#17 = CARTESIAN_POINT ( 'NONE',  ( 0.0000000000000000000, 0.0000000000000000000, 0.0000000000000000000 ) ) ;
#18 = EDGE_CURVE ( 'NONE', #78, #78, #172, .T. ) ;
#19 = AXIS2_PLACEMENT_3D ( 'NONE', #166, #73, #201 ) ;
#20 = APPROVAL_STATUS ( 'not_yet_approved' ) ;
#21 = PRODUCT_RELATED_PRODUCT_CATEGORY ( 'detail', '', ( #23 ) ) ;
#22 = EDGE_CURVE ( 'NONE', #65, #65, #66, .T. ) ;
#23 = PRODUCT ( '121', '121', '', ( #101 ) ) ;
#24 = EDGE_LOOP ( 'NONE', ( #196 ) ) ;
#25 = AXIS2_PLACEMENT_3D ( 'NONE', #17, #81, #109 ) ;
#26 = CARTESIAN_POINT ( 'NONE',  ( 1.953725383929402885E-15, -6.852746171729069582E-17, 0.5595691897860034514 ) ) ;
#27 = ADVANCED_FACE ( 'NONE', ( #64 ), #186, .T. ) ;
#28 = CIRCLE ( 'NONE', #104, 1.199999999999997069 ) ;
#29 = APPROVAL ( #125, 'UNSPECIFIED' ) ;
#30 = CARTESIAN_POINT ( 'NONE',  ( 5.586370142149013368E-14, -1.959434878635765131E-15, 16.00000000000000000 ) ) ;
#31 = CARTESIAN_POINT ( 'NONE',  ( 5.586370142149013368E-14, -1.959434878635765131E-15, 16.00000000000000000 ) ) ;
#32 = EDGE_LOOP ( 'NONE', ( #2 ) ) ;
#33 =( NAMED_UNIT ( * ) PLANE_ANGLE_UNIT ( ) SI_UNIT ( $, .RADIAN. ) );
#34 = SHAPE_DEFINITION_REPRESENTATION ( #193, #89 ) ;
#35 = CYLINDRICAL_SURFACE ( 'NONE', #38, 1.199999999999996181 ) ;
#36 = VERTEX_POINT ( 'NONE', #116 ) ;
#37 = DATE_AND_TIME ( #176, #54 ) ;
#38 = AXIS2_PLACEMENT_3D ( 'NONE', #99, #154, #138 ) ;
#39 = APPROVAL ( #143, 'UNSPECIFIED' ) ;
#40 = AXIS2_PLACEMENT_3D ( 'NONE', #94, #140, #190 ) ;
#41 = APPROVAL_DATE_TIME ( #59, #134 ) ;
#42 = FACE_OUTER_BOUND ( 'NONE', #153, .T. ) ;
#43 = CALENDAR_DATE ( 2021, 6, 10 ) ;
#44 = DIRECTION ( 'NONE',  ( 0.0000000000000000000, 1.000000000000000000, 0.0000000000000000000 ) ) ;
#45 = PERSON_AND_ORGANIZATION_ROLE ( 'design_supplier' ) ;
#46 = AXIS2_PLACEMENT_3D ( 'NONE', #137, #130, #126 ) ;
#47 = ORIENTED_EDGE ( 'NONE', *, *, #121, .T. ) ;
#48 = CARTESIAN_POINT ( 'NONE',  ( 0.0000000000000000000, 0.0000000000000000000, 0.0000000000000000000 ) ) ;
#49 = ADVANCED_FACE ( 'NONE', ( #106 ), #74, .F. ) ;
#50 = DATE_AND_TIME ( #111, #133 ) ;
#51 = APPROVAL_PERSON_ORGANIZATION ( #192, #29, #127 ) ;
#52 = UNCERTAINTY_MEASURE_WITH_UNIT (LENGTH_MEASURE( 1.000000000000000082E-05 ), #141, 'distance_accuracy_value', 'NONE');
#53 = EDGE_LOOP ( 'NONE', ( #182 ) ) ;
#54 = LOCAL_TIME ( 13, 26, 0.0000000000000000000, #85 ) ;
#55 = EDGE_LOOP ( 'NONE', ( #71 ) ) ;
#56 = DIRECTION ( 'NONE',  ( 0.0000000000000000000, 1.000000000000000000, 0.0000000000000000000 ) ) ;
#57 = FACE_OUTER_BOUND ( 'NONE', #16, .T. ) ;
#58 = EDGE_CURVE ( 'NONE', #36, #36, #72, .T. ) ;
#59 = DATE_AND_TIME ( #167, #171 ) ;
#60 = DIRECTION ( 'NONE',  ( -3.491481338843133355E-15, 1.224646799147353207E-16, -1.000000000000000000 ) ) ;
#61 = CALENDAR_DATE ( 2021, 6, 10 ) ;
#62 = FACE_OUTER_BOUND ( 'NONE', #180, .T. ) ;
#63 = PERSON_AND_ORGANIZATION_ROLE ( 'creator' ) ;
#64 = FACE_OUTER_BOUND ( 'NONE', #53, .T. ) ;
#65 = VERTEX_POINT ( 'NONE', #93 ) ;
#66 = CIRCLE ( 'NONE', #135, 1.200000000000000400 ) ;
#67 = APPROVAL_ROLE ( '' ) ;
#68 = LOCAL_TIME ( 13, 26, 0.0000000000000000000, #132 ) ;
#69 = ORGANIZATION ( 'UNSPECIFIED', 'UNSPECIFIED', '' ) ;
#70 = PRODUCT_DEFINITION ( 'UNKNOWN', '', #151, #5 ) ;
#71 = ORIENTED_EDGE ( 'NONE', *, *, #58, .T. ) ;
#72 = CIRCLE ( 'NONE', #200, 1.199999999999995071 ) ;
#73 = DIRECTION ( 'NONE',  ( -3.491481338843133355E-15, 1.224646799147353207E-16, -1.000000000000000000 ) ) ;
#74 = PLANE ( 'NONE',  #40 ) ;
#75 = DIRECTION ( 'NONE',  ( 1.000000000000000000, 0.0000000000000000000, 0.0000000000000000000 ) ) ;
#76 = FACE_OUTER_BOUND ( 'NONE', #55, .T. ) ;
#77 = CLOSED_SHELL ( 'NONE', ( #49, #194, #165, #147 ) ) ;
#78 = VERTEX_POINT ( 'NONE', #185 ) ;
#79 = CARTESIAN_POINT ( 'NONE',  ( 1.490862531686017501E-13, -5.229241832359196822E-15, 42.69999999999998863 ) ) ;
#80 = DATE_AND_TIME ( #61, #161 ) ;
#81 = DIRECTION ( 'NONE',  ( -3.491481338843133355E-15, 1.224646799147353207E-16, -1.000000000000000000 ) ) ;
#82 = CC_DESIGN_PERSON_AND_ORGANIZATION_ASSIGNMENT ( #129, #115, ( #151 ) ) ;
#83 = VERTEX_POINT ( 'NONE', #100 ) ;
#84 = CIRCLE ( 'NONE', #19, 0.9000000000000004663 ) ;
#85 = COORDINATED_UNIVERSAL_TIME_OFFSET ( 1, 0, .AHEAD. ) ;
#86 = ADVANCED_FACE ( 'NONE', ( #76 ), #4, .T. ) ;
#87 = CC_DESIGN_PERSON_AND_ORGANIZATION_ASSIGNMENT ( #189, #45, ( #151 ) ) ;
#88 = ORIENTED_EDGE ( 'NONE', *, *, #121, .F. ) ;
#89 = ADVANCED_BREP_SHAPE_REPRESENTATION ( '121', ( #178, #108, #102 ), #96 ) ;
#90 = APPLICATION_CONTEXT ( 'configuration controlled 3d designs of mechanical parts and assemblies' ) ;
#91 = DIRECTION ( 'NONE',  ( 3.209883240645406372E-31, 1.000000000000000000, 9.035018104045907672E-17 ) ) ;
#92 = DIRECTION ( 'NONE',  ( -3.491481338843133355E-15, 1.224646799147353207E-16, -1.000000000000000000 ) ) ;
#93 = CARTESIAN_POINT ( 'NONE',  ( 1.490862531686017501E-13, 1.199999999999995071, 42.69999999999998863 ) ) ;
#94 = CARTESIAN_POINT ( 'NONE',  ( 5.586370142149013368E-14, 8.998558695971095014E-33, 16.00000000000000000 ) ) ;
#95 = COORDINATED_UNIVERSAL_TIME_OFFSET ( 1, 0, .AHEAD. ) ;
#96 =( GEOMETRIC_REPRESENTATION_CONTEXT ( 3 ) GLOBAL_UNCERTAINTY_ASSIGNED_CONTEXT ( ( #52 ) ) GLOBAL_UNIT_ASSIGNED_CONTEXT ( ( #141, #33, #187 ) ) REPRESENTATION_CONTEXT ( 'NONE', 'WORKASPACE' ) );
#97 = DIRECTION ( 'NONE',  ( 3.491481338843133355E-15, -1.224646799147353207E-16, 1.000000000000000000 ) ) ;
#98 = DIRECTION ( 'NONE',  ( 0.0000000000000000000, 0.0000000000000000000, 1.000000000000000000 ) ) ;
#99 = CARTESIAN_POINT ( 'NONE',  ( 0.0000000000000000000, 0.0000000000000000000, 0.0000000000000000000 ) ) ;
#100 = CARTESIAN_POINT ( 'NONE',  ( 5.586370142149013368E-14, 1.199999999999995071, 16.00000000000000000 ) ) ;
#101 = MECHANICAL_CONTEXT ( 'NONE', #177, 'mechanical' ) ;
#102 = AXIS2_PLACEMENT_3D ( 'NONE', #48, #98, #75 ) ;
#103 = DATE_TIME_ROLE ( 'classification_date' ) ;
#104 = AXIS2_PLACEMENT_3D ( 'NONE', #30, #197, #56 ) ;
#105 = SECURITY_CLASSIFICATION ( '', '', #113 ) ;
#106 = FACE_OUTER_BOUND ( 'NONE', #136, .T. ) ;
#107 = CC_DESIGN_DATE_AND_TIME_ASSIGNMENT ( #37, #103, ( #105 ) ) ;
#108 = MANIFOLD_SOLID_BREP ( 'Corps-Déplacer/Copier1[2]', #148 ) ;
#109 = DIRECTION ( 'NONE',  ( 4.275831445896957731E-31, 1.000000000000000000, 1.224646799147353207E-16 ) ) ;
#110 = CARTESIAN_POINT ( 'NONE',  ( 1.953725383929402885E-15, -6.852746171729069582E-17, 0.5595691897860034514 ) ) ;
#111 = CALENDAR_DATE ( 2021, 6, 10 ) ;
#112 = FACE_OUTER_BOUND ( 'NONE', #150, .T. ) ;
#113 = SECURITY_CLASSIFICATION_LEVEL ( 'unclassified' ) ;
#114 = CC_DESIGN_PERSON_AND_ORGANIZATION_ASSIGNMENT ( #3, #175, ( #105 ) ) ;
#115 = PERSON_AND_ORGANIZATION_ROLE ( 'creator' ) ;
#116 = CARTESIAN_POINT ( 'NONE',  ( 1.953725383929403280E-15, 1.199999999999995071, 0.5595691897860035624 ) ) ;
#117 = AXIS2_PLACEMENT_3D ( 'NONE', #110, #97, #158 ) ;
#118 = ORIENTED_EDGE ( 'NONE', *, *, #58, .F. ) ;
#119 = ORIENTED_EDGE ( 'NONE', *, *, #22, .F. ) ;
#120 = CARTESIAN_POINT ( 'NONE',  ( 1.501336975702547217E-13, 0.8999999999999952482, 43.00000000000000000 ) ) ;
#121 = EDGE_CURVE ( 'NONE', #83, #83, #28, .T. ) ;
#122 = CARTESIAN_POINT ( 'NONE',  ( 1.501336975702547217E-13, 6.748919021978283970E-33, 43.00000000000000000 ) ) ;
#123 = CC_DESIGN_APPROVAL ( #39, ( #70 ) ) ;
#124 = FACE_OUTER_BOUND ( 'NONE', #32, .T. ) ;
#125 = APPROVAL_STATUS ( 'not_yet_approved' ) ;
#126 = DIRECTION ( 'NONE',  ( -4.275831445896958607E-31, -1.000000000000000000, -1.224646799147353207E-16 ) ) ;
#127 = APPROVAL_ROLE ( '' ) ;
#128 = FACE_BOUND ( 'NONE', #24, .T. ) ;
#129 = PERSON_AND_ORGANIZATION ( #152, #69 ) ;
#130 = DIRECTION ( 'NONE',  ( 3.491481338843133355E-15, -1.224646799147353207E-16, 1.000000000000000000 ) ) ;
#131 = AXIS2_PLACEMENT_3D ( 'NONE', #12, #92, #44 ) ;
#132 = COORDINATED_UNIVERSAL_TIME_OFFSET ( 1, 0, .AHEAD. ) ;
#133 = LOCAL_TIME ( 13, 26, 0.0000000000000000000, #174 ) ;
#134 = APPROVAL ( #20, 'UNSPECIFIED' ) ;
#135 = AXIS2_PLACEMENT_3D ( 'NONE', #79, #14, #10 ) ;
#136 = EDGE_LOOP ( 'NONE', ( #47 ) ) ;
#137 = CARTESIAN_POINT ( 'NONE',  ( 5.586370142149013368E-14, 8.998558695971095014E-33, 16.00000000000000000 ) ) ;
#138 = DIRECTION ( 'NONE',  ( 4.275831445896958607E-31, 1.000000000000000000, 1.224646799147353207E-16 ) ) ;
#139 = PERSON_AND_ORGANIZATION_ROLE ( 'design_owner' ) ;
#140 = DIRECTION ( 'NONE',  ( 3.491481338843133355E-15, -1.224646799147353207E-16, 1.000000000000000000 ) ) ;
#141 =( LENGTH_UNIT ( ) NAMED_UNIT ( * ) SI_UNIT ( .MILLI., .METRE. ) );
#142 = PLANE ( 'NONE',  #7 ) ;
#143 = APPROVAL_STATUS ( 'not_yet_approved' ) ;
#144 = CC_DESIGN_PERSON_AND_ORGANIZATION_ASSIGNMENT ( #160, #63, ( #70 ) ) ;
#145 = VERTEX_POINT ( 'NONE', #120 ) ;
#146 = DATE_AND_TIME ( #43, #68 ) ;
#147 = ADVANCED_FACE ( 'NONE', ( #112 ), #142, .F. ) ;
#148 = CLOSED_SHELL ( 'NONE', ( #86, #181, #27 ) ) ;
#149 = CC_DESIGN_DATE_AND_TIME_ASSIGNMENT ( #146, #15, ( #70 ) ) ;
#150 = EDGE_LOOP ( 'NONE', ( #169 ) ) ;
#151 = PRODUCT_DEFINITION_FORMATION_WITH_SPECIFIED_SOURCE ( 'ANY', '', #23, .NOT_KNOWN. ) ;
#152 = PERSON ( 'UNSPECIFIED', 'UNSPECIFIED', 'UNSPECIFIED', ('UNSPECIFIED'), ('UNSPECIFIED'), ('UNSPECIFIED') ) ;
#153 = EDGE_LOOP ( 'NONE', ( #8 ) ) ;
#154 = DIRECTION ( 'NONE',  ( -3.491481338843133355E-15, 1.224646799147353207E-16, -1.000000000000000000 ) ) ;
#155 = DIRECTION ( 'NONE',  ( 0.0000000000000000000, 1.000000000000000000, 0.0000000000000000000 ) ) ;
#156 = APPROVAL_DATE_TIME ( #80, #39 ) ;
#157 = CC_DESIGN_APPROVAL ( #134, ( #105 ) ) ;
#158 = DIRECTION ( 'NONE',  ( -3.209883240645406372E-31, -1.000000000000000000, -9.035018104045907672E-17 ) ) ;
#159 = CYLINDRICAL_SURFACE ( 'NONE', #25, 1.199999999999998845 ) ;
#160 = PERSON_AND_ORGANIZATION ( #152, #69 ) ;
#161 = LOCAL_TIME ( 13, 26, 0.0000000000000000000, #95 ) ;
#162 = APPROVAL_PERSON_ORGANIZATION ( #163, #134, #202 ) ;
#163 = PERSON_AND_ORGANIZATION ( #152, #69 ) ;
#164 = AXIS2_PLACEMENT_3D ( 'NONE', #31, #60, #155 ) ;
#165 = ADVANCED_FACE ( 'NONE', ( #62, #128 ), #9, .T. ) ;
#166 = CARTESIAN_POINT ( 'NONE',  ( 1.501336975702547217E-13, -5.265981236333618470E-15, 43.00000000000000000 ) ) ;
#167 = CALENDAR_DATE ( 2021, 6, 10 ) ;
#168 = DIRECTION ( 'NONE',  ( -3.491481338843133355E-15, 1.224646799147353207E-16, -1.000000000000000000 ) ) ;
#169 = ORIENTED_EDGE ( 'NONE', *, *, #11, .F. ) ;
#170 = APPROVAL_DATE_TIME ( #50, #29 ) ;
#171 = LOCAL_TIME ( 13, 26, 0.0000000000000000000, #188 ) ;
#172 = CIRCLE ( 'NONE', #164, 1.199999999999997069 ) ;
#173 = FACE_OUTER_BOUND ( 'NONE', #198, .T. ) ;
#174 = COORDINATED_UNIVERSAL_TIME_OFFSET ( 1, 0, .AHEAD. ) ;
#175 = PERSON_AND_ORGANIZATION_ROLE ( 'classification_officer' ) ;
#176 = CALENDAR_DATE ( 2021, 6, 10 ) ;
#177 = APPLICATION_CONTEXT ( 'configuration controlled 3d designs of mechanical parts and assemblies' ) ;
#178 = MANIFOLD_SOLID_BREP ( 'Corps-Déplacer/Copier1[1]', #77 ) ;
#179 = CC_DESIGN_PERSON_AND_ORGANIZATION_ASSIGNMENT ( #13, #139, ( #23 ) ) ;
#180 = EDGE_LOOP ( 'NONE', ( #119 ) ) ;
#181 = ADVANCED_FACE ( 'NONE', ( #173, #42 ), #35, .T. ) ;
#182 = ORIENTED_EDGE ( 'NONE', *, *, #18, .F. ) ;
#183 = CC_DESIGN_SECURITY_CLASSIFICATION ( #105, ( #151 ) ) ;
#184 = DIRECTION ( 'NONE',  ( 4.275831445896958607E-31, 1.000000000000000000, 1.224646799147353207E-16 ) ) ;
#185 = CARTESIAN_POINT ( 'NONE',  ( 5.586370142149013368E-14, 1.199999999999995071, 16.00000000000000000 ) ) ;
#186 = PLANE ( 'NONE',  #46 ) ;
#187 =( NAMED_UNIT ( * ) SI_UNIT ( $, .STERADIAN. ) SOLID_ANGLE_UNIT ( ) );
#188 = COORDINATED_UNIVERSAL_TIME_OFFSET ( 1, 0, .AHEAD. ) ;
#189 = PERSON_AND_ORGANIZATION ( #152, #69 ) ;
#190 = DIRECTION ( 'NONE',  ( -4.275831445896958607E-31, -1.000000000000000000, -1.224646799147353207E-16 ) ) ;
#191 = APPLICATION_PROTOCOL_DEFINITION ( 'international standard', 'config_control_design', 1994, #177 ) ;
#192 = PERSON_AND_ORGANIZATION ( #152, #69 ) ;
#193 = PRODUCT_DEFINITION_SHAPE ( 'NONE', 'NONE',  #70 ) ;
#194 = ADVANCED_FACE ( 'NONE', ( #57, #124 ), #159, .T. ) ;
#195 = APPROVAL_PERSON_ORGANIZATION ( #1, #39, #67 ) ;
#196 = ORIENTED_EDGE ( 'NONE', *, *, #11, .T. ) ;
#197 = DIRECTION ( 'NONE',  ( -3.491481338843133355E-15, 1.224646799147353207E-16, -1.000000000000000000 ) ) ;
#198 = EDGE_LOOP ( 'NONE', ( #118 ) ) ;
#199 = APPLICATION_PROTOCOL_DEFINITION ( 'international standard', 'config_control_design', 1994, #90 ) ;
#200 = AXIS2_PLACEMENT_3D ( 'NONE', #26, #168, #91 ) ;
#201 = DIRECTION ( 'NONE',  ( 0.0000000000000000000, 1.000000000000000000, 0.0000000000000000000 ) ) ;
#202 = APPROVAL_ROLE ( '' ) ;
#203 = DIRECTION ( 'NONE',  ( -3.491481338843133355E-15, 1.224646799147353207E-16, -1.000000000000000000 ) ) ;
ENDSEC;
END-ISO-10303-21;
