ISO-10303-21;
HEADER;
FILE_DESCRIPTION (( 'STEP AP203' ),
    '1' );
FILE_NAME ('120.step',
    '2021-10-06T11:25:59',
    ( '' ),
    ( '' ),
    'SwSTEP 2.0',
    'SolidWorks 2019',
    '' );
FILE_SCHEMA (( 'CONFIG_CONTROL_DESIGN' ));
ENDSEC;

DATA;
#1 =( GEOMETRIC_REPRESENTATION_CONTEXT ( 3 ) GLOBAL_UNCERTAINTY_ASSIGNED_CONTEXT ( ( #164 ) ) GLOBAL_UNIT_ASSIGNED_CONTEXT ( ( #88, #123, #122 ) ) REPRESENTATION_CONTEXT ( 'NONE', 'WORKASPACE' ) );
#2 = AXIS2_PLACEMENT_3D ( 'NONE', #76, #125, #196 ) ;
#3 = DIRECTION ( 'NONE',  ( 4.275831445896958607E-31, 1.000000000000000000, 1.224646799147353207E-16 ) ) ;
#4 = EDGE_CURVE ( 'NONE', #197, #197, #50, .T. ) ;
#5 = ORIENTED_EDGE ( 'NONE', *, *, #166, .T. ) ;
#6 = CARTESIAN_POINT ( 'NONE',  ( 1.386118091520723879E-13, 1.149999999999995248, 39.69999999999999574 ) ) ;
#7 = DIRECTION ( 'NONE',  ( -3.491481338843133355E-15, 1.224646799147353207E-16, -1.000000000000000000 ) ) ;
#8 = DIRECTION ( 'NONE',  ( 0.0000000000000000000, 1.000000000000000000, 0.0000000000000000000 ) ) ;
#9 = APPROVAL_PERSON_ORGANIZATION ( #65, #112, #28 ) ;
#10 = CARTESIAN_POINT ( 'NONE',  ( 0.0000000000000000000, 0.0000000000000000000, 0.0000000000000000000 ) ) ;
#11 = SECURITY_CLASSIFICATION_LEVEL ( 'unclassified' ) ;
#12 = APPLICATION_PROTOCOL_DEFINITION ( 'international standard', 'config_control_design', 1994, #64 ) ;
#13 = AXIS2_PLACEMENT_3D ( 'NONE', #10, #140, #78 ) ;
#14 = PRODUCT_DEFINITION_SHAPE ( 'NONE', 'NONE',  #84 ) ;
#15 = PERSON_AND_ORGANIZATION ( #187, #133 ) ;
#16 = DATE_TIME_ROLE ( 'classification_date' ) ;
#17 = AXIS2_PLACEMENT_3D ( 'NONE', #33, #54, #37 ) ;
#18 = FACE_OUTER_BOUND ( 'NONE', #51, .T. ) ;
#19 = EDGE_LOOP ( 'NONE', ( #53 ) ) ;
#20 = FACE_OUTER_BOUND ( 'NONE', #194, .T. ) ;
#21 = VERTEX_POINT ( 'NONE', #200 ) ;
#22 = ADVANCED_FACE ( 'NONE', ( #20, #18 ), #118, .T. ) ;
#23 = AXIS2_PLACEMENT_3D ( 'NONE', #116, #35, #101 ) ;
#24 = DIRECTION ( 'NONE',  ( -3.491481338843133355E-15, 1.224646799147353207E-16, -1.000000000000000000 ) ) ;
#25 = FACE_OUTER_BOUND ( 'NONE', #150, .T. ) ;
#26 = CC_DESIGN_PERSON_AND_ORGANIZATION_ASSIGNMENT ( #173, #49, ( #84 ) ) ;
#27 = CIRCLE ( 'NONE', #93, 0.8500000000000001998 ) ;
#28 = APPROVAL_ROLE ( '' ) ;
#29 = DATE_AND_TIME ( #113, #83 ) ;
#30 = DATE_AND_TIME ( #80, #161 ) ;
#31 = CC_DESIGN_PERSON_AND_ORGANIZATION_ASSIGNMENT ( #46, #94, ( #102 ) ) ;
#32 = CLOSED_SHELL ( 'NONE', ( #91, #22, #163, #98 ) ) ;
#33 = CARTESIAN_POINT ( 'NONE',  ( 5.586370142149013368E-14, 8.623618750305630612E-33, 16.00000000000000000 ) ) ;
#34 = ORIENTED_EDGE ( 'NONE', *, *, #134, .T. ) ;
#35 = DIRECTION ( 'NONE',  ( 3.491481338843133355E-15, -1.224646799147353207E-16, 1.000000000000000000 ) ) ;
#36 = AXIS2_PLACEMENT_3D ( 'NONE', #87, #99, #3 ) ;
#37 = DIRECTION ( 'NONE',  ( -4.275831445896958607E-31, -1.000000000000000000, -1.224646799147353207E-16 ) ) ;
#38 = ORIENTED_EDGE ( 'NONE', *, *, #109, .F. ) ;
#39 = DESIGN_CONTEXT ( 'detailed design', #64, 'design' ) ;
#40 = DIRECTION ( 'NONE',  ( -3.491481338843133355E-15, 1.224646799147353207E-16, -1.000000000000000000 ) ) ;
#41 = FACE_OUTER_BOUND ( 'NONE', #85, .T. ) ;
#42 = DIRECTION ( 'NONE',  ( -3.491481338843133355E-15, 1.224646799147353207E-16, -1.000000000000000000 ) ) ;
#43 = PLANE ( 'NONE',  #132 ) ;
#44 = APPROVAL_PERSON_ORGANIZATION ( #145, #160, #176 ) ;
#45 = COORDINATED_UNIVERSAL_TIME_OFFSET ( 1, 0, .AHEAD. ) ;
#46 = PERSON_AND_ORGANIZATION ( #187, #133 ) ;
#47 = CIRCLE ( 'NONE', #2, 1.149999999999997247 ) ;
#48 = DATE_AND_TIME ( #189, #89 ) ;
#49 = PERSON_AND_ORGANIZATION_ROLE ( 'creator' ) ;
#50 = CIRCLE ( 'NONE', #175, 1.149999999999999911 ) ;
#51 = EDGE_LOOP ( 'NONE', ( #68 ) ) ;
#52 = PRODUCT_RELATED_PRODUCT_CATEGORY ( 'detail', '', ( #157 ) ) ;
#53 = ORIENTED_EDGE ( 'NONE', *, *, #109, .T. ) ;
#54 = DIRECTION ( 'NONE',  ( 3.491481338843133355E-15, -1.224646799147353207E-16, 1.000000000000000000 ) ) ;
#55 = ADVANCED_FACE ( 'NONE', ( #179 ), #128, .T. ) ;
#56 = CARTESIAN_POINT ( 'NONE',  ( 5.586370142149013368E-14, 1.149999999999995248, 16.00000000000000000 ) ) ;
#57 = VERTEX_POINT ( 'NONE', #70 ) ;
#58 = FACE_OUTER_BOUND ( 'NONE', #147, .T. ) ;
#59 = ADVANCED_FACE ( 'NONE', ( #165 ), #67, .T. ) ;
#60 = DIRECTION ( 'NONE',  ( -3.491481338843133355E-15, 1.224646799147353207E-16, -1.000000000000000000 ) ) ;
#61 = DIRECTION ( 'NONE',  ( -4.275831445896958607E-31, -1.000000000000000000, -1.224646799147353207E-16 ) ) ;
#62 = PERSON_AND_ORGANIZATION ( #187, #133 ) ;
#63 = COORDINATED_UNIVERSAL_TIME_OFFSET ( 1, 0, .AHEAD. ) ;
#64 = APPLICATION_CONTEXT ( 'configuration controlled 3d designs of mechanical parts and assemblies' ) ;
#65 = PERSON_AND_ORGANIZATION ( #187, #133 ) ;
#66 = ADVANCED_BREP_SHAPE_REPRESENTATION ( '120', ( #174, #105, #13 ), #1 ) ;
#67 = PLANE ( 'NONE',  #17 ) ;
#68 = ORIENTED_EDGE ( 'NONE', *, *, #4, .T. ) ;
#69 = CC_DESIGN_APPROVAL ( #160, ( #107 ) ) ;
#70 = CARTESIAN_POINT ( 'NONE',  ( 5.586370142149013368E-14, 1.149999999999995248, 16.00000000000000000 ) ) ;
#71 = CARTESIAN_POINT ( 'NONE',  ( 1.872320159599010556E-15, -6.567215081240356911E-17, 0.5362538068782531919 ) ) ;
#72 = DIRECTION ( 'NONE',  ( 4.275831445896958607E-31, 1.000000000000000000, 1.224646799147353207E-16 ) ) ;
#73 = APPROVAL ( #129, 'UNSPECIFIED' ) ;
#74 = AXIS2_PLACEMENT_3D ( 'NONE', #169, #108, #139 ) ;
#75 = CARTESIAN_POINT ( 'NONE',  ( 5.586370142149013368E-14, -1.959434878635765131E-15, 16.00000000000000000 ) ) ;
#76 = CARTESIAN_POINT ( 'NONE',  ( 5.586370142149013368E-14, -1.959434878635765131E-15, 16.00000000000000000 ) ) ;
#77 = COORDINATED_UNIVERSAL_TIME_OFFSET ( 1, 0, .AHEAD. ) ;
#78 = DIRECTION ( 'NONE',  ( 1.000000000000000000, 0.0000000000000000000, 0.0000000000000000000 ) ) ;
#79 = PERSON_AND_ORGANIZATION_ROLE ( 'classification_officer' ) ;
#80 = CALENDAR_DATE ( 2021, 6, 10 ) ;
#81 = CC_DESIGN_DATE_AND_TIME_ASSIGNMENT ( #203, #16, ( #107 ) ) ;
#82 = PERSON_AND_ORGANIZATION ( #187, #133 ) ;
#83 = LOCAL_TIME ( 13, 25, 59.00000000000000000, #63 ) ;
#84 = PRODUCT_DEFINITION ( 'UNKNOWN', '', #102, #39 ) ;
#85 = EDGE_LOOP ( 'NONE', ( #131 ) ) ;
#86 = CARTESIAN_POINT ( 'NONE',  ( 1.386118091520723879E-13, -4.861847792614992166E-15, 39.69999999999999574 ) ) ;
#87 = CARTESIAN_POINT ( 'NONE',  ( 0.0000000000000000000, 0.0000000000000000000, 0.0000000000000000000 ) ) ;
#88 =( LENGTH_UNIT ( ) NAMED_UNIT ( * ) SI_UNIT ( .MILLI., .METRE. ) );
#89 = LOCAL_TIME ( 13, 25, 59.00000000000000000, #96 ) ;
#90 = FACE_OUTER_BOUND ( 'NONE', #178, .T. ) ;
#91 = ADVANCED_FACE ( 'NONE', ( #183 ), #43, .F. ) ;
#92 = CARTESIAN_POINT ( 'NONE',  ( 1.396592535537253342E-13, -4.898587196589413026E-15, 40.00000000000000000 ) ) ;
#93 = AXIS2_PLACEMENT_3D ( 'NONE', #137, #24, #8 ) ;
#94 = PERSON_AND_ORGANIZATION_ROLE ( 'creator' ) ;
#95 = PERSON_AND_ORGANIZATION_ROLE ( 'design_supplier' ) ;
#96 = COORDINATED_UNIVERSAL_TIME_OFFSET ( 1, 0, .AHEAD. ) ;
#97 = APPLICATION_CONTEXT ( 'configuration controlled 3d designs of mechanical parts and assemblies' ) ;
#98 = ADVANCED_FACE ( 'NONE', ( #41 ), #121, .F. ) ;
#99 = DIRECTION ( 'NONE',  ( -3.491481338843133355E-15, 1.224646799147353207E-16, -1.000000000000000000 ) ) ;
#100 = ORIENTED_EDGE ( 'NONE', *, *, #134, .F. ) ;
#101 = DIRECTION ( 'NONE',  ( -3.349443381543032545E-31, -1.000000000000000000, -9.427844978134859644E-17 ) ) ;
#102 = PRODUCT_DEFINITION_FORMATION_WITH_SPECIFIED_SOURCE ( 'ANY', '', #157, .NOT_KNOWN. ) ;
#103 = ORIENTED_EDGE ( 'NONE', *, *, #185, .F. ) ;
#104 = CARTESIAN_POINT ( 'NONE',  ( 1.396592535537253342E-13, 6.373979076312823674E-33, 40.00000000000000000 ) ) ;
#105 = MANIFOLD_SOLID_BREP ( 'Corps-Déplacer/Copier1[2]', #126 ) ;
#106 = CARTESIAN_POINT ( 'NONE',  ( 1.396592535537253342E-13, 0.8499999999999953149, 40.00000000000000000 ) ) ;
#107 = SECURITY_CLASSIFICATION ( '', '', #11 ) ;
#108 = DIRECTION ( 'NONE',  ( -3.491481338843133355E-15, 1.224646799147353207E-16, -1.000000000000000000 ) ) ;
#109 = EDGE_CURVE ( 'NONE', #57, #57, #114, .T. ) ;
#110 = APPROVAL_STATUS ( 'not_yet_approved' ) ;
#111 = APPROVAL_DATE_TIME ( #30, #160 ) ;
#112 = APPROVAL ( #110, 'UNSPECIFIED' ) ;
#113 = CALENDAR_DATE ( 2021, 6, 10 ) ;
#114 = CIRCLE ( 'NONE', #168, 1.149999999999997247 ) ;
#115 = APPROVAL_STATUS ( 'not_yet_approved' ) ;
#116 = CARTESIAN_POINT ( 'NONE',  ( 1.872320159599010556E-15, -6.567215081240356911E-17, 0.5362538068782531919 ) ) ;
#117 = LOCAL_TIME ( 13, 25, 59.00000000000000000, #77 ) ;
#118 = CYLINDRICAL_SURFACE ( 'NONE', #36, 1.149999999999998579 ) ;
#119 = DIRECTION ( 'NONE',  ( -3.491481338843133355E-15, 1.224646799147353207E-16, -1.000000000000000000 ) ) ;
#120 = CC_DESIGN_APPROVAL ( #73, ( #84 ) ) ;
#121 = PLANE ( 'NONE',  #142 ) ;
#122 =( NAMED_UNIT ( * ) SI_UNIT ( $, .STERADIAN. ) SOLID_ANGLE_UNIT ( ) );
#123 =( NAMED_UNIT ( * ) PLANE_ANGLE_UNIT ( ) SI_UNIT ( $, .RADIAN. ) );
#124 = DIRECTION ( 'NONE',  ( 0.0000000000000000000, 1.000000000000000000, 0.0000000000000000000 ) ) ;
#125 = DIRECTION ( 'NONE',  ( -3.491481338843133355E-15, 1.224646799147353207E-16, -1.000000000000000000 ) ) ;
#126 = CLOSED_SHELL ( 'NONE', ( #55, #198, #59 ) ) ;
#127 = CC_DESIGN_PERSON_AND_ORGANIZATION_ASSIGNMENT ( #62, #172, ( #157 ) ) ;
#128 = CONICAL_SURFACE ( 'NONE', #23, 1.149999999999995248, 1.134464013796309123 ) ;
#129 = APPROVAL_STATUS ( 'not_yet_approved' ) ;
#130 = CC_DESIGN_PERSON_AND_ORGANIZATION_ASSIGNMENT ( #155, #95, ( #102 ) ) ;
#131 = ORIENTED_EDGE ( 'NONE', *, *, #166, .F. ) ;
#132 = AXIS2_PLACEMENT_3D ( 'NONE', #181, #170, #61 ) ;
#133 = ORGANIZATION ( 'UNSPECIFIED', 'UNSPECIFIED', '' ) ;
#134 = EDGE_CURVE ( 'NONE', #21, #21, #192, .T. ) ;
#135 = VERTEX_POINT ( 'NONE', #56 ) ;
#136 = DIRECTION ( 'NONE',  ( 3.349443381543032545E-31, 1.000000000000000000, 9.427844978134859644E-17 ) ) ;
#137 = CARTESIAN_POINT ( 'NONE',  ( 1.396592535537253342E-13, -4.898587196589413026E-15, 40.00000000000000000 ) ) ;
#138 = AXIS2_PLACEMENT_3D ( 'NONE', #71, #60, #136 ) ;
#139 = DIRECTION ( 'NONE',  ( 4.275831445896957731E-31, 1.000000000000000000, 1.224646799147353207E-16 ) ) ;
#140 = DIRECTION ( 'NONE',  ( 0.0000000000000000000, 0.0000000000000000000, 1.000000000000000000 ) ) ;
#141 = APPROVAL_DATE_TIME ( #48, #73 ) ;
#142 = AXIS2_PLACEMENT_3D ( 'NONE', #104, #7, #72 ) ;
#143 = APPROVAL_ROLE ( '' ) ;
#144 = COORDINATED_UNIVERSAL_TIME_OFFSET ( 1, 0, .AHEAD. ) ;
#145 = PERSON_AND_ORGANIZATION ( #187, #133 ) ;
#146 = DATE_AND_TIME ( #159, #151 ) ;
#147 = EDGE_LOOP ( 'NONE', ( #162 ) ) ;
#148 = EDGE_LOOP ( 'NONE', ( #34 ) ) ;
#149 = DIRECTION ( 'NONE',  ( 0.0000000000000000000, 1.000000000000000000, 0.0000000000000000000 ) ) ;
#150 = EDGE_LOOP ( 'NONE', ( #191 ) ) ;
#151 = LOCAL_TIME ( 13, 25, 59.00000000000000000, #45 ) ;
#152 = APPLICATION_PROTOCOL_DEFINITION ( 'international standard', 'config_control_design', 1994, #97 ) ;
#153 = DIRECTION ( 'NONE',  ( 0.0000000000000000000, 1.000000000000000000, 0.0000000000000000000 ) ) ;
#154 = CC_DESIGN_PERSON_AND_ORGANIZATION_ASSIGNMENT ( #82, #79, ( #107 ) ) ;
#155 = PERSON_AND_ORGANIZATION ( #187, #133 ) ;
#156 = MECHANICAL_CONTEXT ( 'NONE', #97, 'mechanical' ) ;
#157 = PRODUCT ( '120', '120', '', ( #156 ) ) ;
#158 = SHAPE_DEFINITION_REPRESENTATION ( #14, #66 ) ;
#159 = CALENDAR_DATE ( 2021, 6, 10 ) ;
#160 = APPROVAL ( #115, 'UNSPECIFIED' ) ;
#161 = LOCAL_TIME ( 13, 25, 59.00000000000000000, #144 ) ;
#162 = ORIENTED_EDGE ( 'NONE', *, *, #185, .T. ) ;
#163 = ADVANCED_FACE ( 'NONE', ( #25, #167 ), #171, .T. ) ;
#164 = UNCERTAINTY_MEASURE_WITH_UNIT (LENGTH_MEASURE( 1.000000000000000082E-05 ), #88, 'distance_accuracy_value', 'NONE');
#165 = FACE_OUTER_BOUND ( 'NONE', #193, .T. ) ;
#166 = EDGE_CURVE ( 'NONE', #182, #182, #27, .T. ) ;
#167 = FACE_BOUND ( 'NONE', #177, .T. ) ;
#168 = AXIS2_PLACEMENT_3D ( 'NONE', #75, #42, #124 ) ;
#169 = CARTESIAN_POINT ( 'NONE',  ( 0.0000000000000000000, 0.0000000000000000000, 0.0000000000000000000 ) ) ;
#170 = DIRECTION ( 'NONE',  ( 3.491481338843133355E-15, -1.224646799147353207E-16, 1.000000000000000000 ) ) ;
#171 = CONICAL_SURFACE ( 'NONE', #180, 0.8500000000000001998, 0.7853981633974452814 ) ;
#172 = PERSON_AND_ORGANIZATION_ROLE ( 'design_owner' ) ;
#173 = PERSON_AND_ORGANIZATION ( #187, #133 ) ;
#174 = MANIFOLD_SOLID_BREP ( 'Corps-Déplacer/Copier1[1]', #32 ) ;
#175 = AXIS2_PLACEMENT_3D ( 'NONE', #86, #119, #149 ) ;
#176 = APPROVAL_ROLE ( '' ) ;
#177 = EDGE_LOOP ( 'NONE', ( #5 ) ) ;
#178 = EDGE_LOOP ( 'NONE', ( #100 ) ) ;
#179 = FACE_OUTER_BOUND ( 'NONE', #148, .T. ) ;
#180 = AXIS2_PLACEMENT_3D ( 'NONE', #92, #40, #153 ) ;
#181 = CARTESIAN_POINT ( 'NONE',  ( 5.586370142149013368E-14, 8.623618750305630612E-33, 16.00000000000000000 ) ) ;
#182 = VERTEX_POINT ( 'NONE', #106 ) ;
#183 = FACE_OUTER_BOUND ( 'NONE', #19, .T. ) ;
#184 = CC_DESIGN_SECURITY_CLASSIFICATION ( #107, ( #102 ) ) ;
#185 = EDGE_CURVE ( 'NONE', #135, #135, #47, .T. ) ;
#186 = APPROVAL_DATE_TIME ( #29, #112 ) ;
#187 = PERSON ( 'UNSPECIFIED', 'UNSPECIFIED', 'UNSPECIFIED', ('UNSPECIFIED'), ('UNSPECIFIED'), ('UNSPECIFIED') ) ;
#188 = APPROVAL_PERSON_ORGANIZATION ( #15, #73, #143 ) ;
#189 = CALENDAR_DATE ( 2021, 6, 10 ) ;
#190 = CC_DESIGN_DATE_AND_TIME_ASSIGNMENT ( #146, #202, ( #84 ) ) ;
#191 = ORIENTED_EDGE ( 'NONE', *, *, #4, .F. ) ;
#192 = CIRCLE ( 'NONE', #138, 1.149999999999995248 ) ;
#193 = EDGE_LOOP ( 'NONE', ( #103 ) ) ;
#194 = EDGE_LOOP ( 'NONE', ( #38 ) ) ;
#195 = CC_DESIGN_APPROVAL ( #112, ( #102 ) ) ;
#196 = DIRECTION ( 'NONE',  ( 0.0000000000000000000, 1.000000000000000000, 0.0000000000000000000 ) ) ;
#197 = VERTEX_POINT ( 'NONE', #6 ) ;
#198 = ADVANCED_FACE ( 'NONE', ( #90, #58 ), #199, .T. ) ;
#199 = CYLINDRICAL_SURFACE ( 'NONE', #74, 1.149999999999996136 ) ;
#200 = CARTESIAN_POINT ( 'NONE',  ( 1.872320159599010950E-15, 1.149999999999995248, 0.5362538068782533029 ) ) ;
#201 = CALENDAR_DATE ( 2021, 6, 10 ) ;
#202 = DATE_TIME_ROLE ( 'creation_date' ) ;
#203 = DATE_AND_TIME ( #201, #117 ) ;
ENDSEC;
END-ISO-10303-21;
