ISO-10303-21;
HEADER;
FILE_DESCRIPTION (( 'STEP AP203' ),
    '1' );
FILE_NAME ('119.step',
    '2021-10-06T11:25:57',
    ( '' ),
    ( '' ),
    'SwSTEP 2.0',
    'SolidWorks 2019',
    '' );
FILE_SCHEMA (( 'CONFIG_CONTROL_DESIGN' ));
ENDSEC;

DATA;
#1 = AXIS2_PLACEMENT_3D ( 'NONE', #178, #81, #137 ) ;
#2 = DIRECTION ( 'NONE',  ( -3.491481338843133355E-15, 1.224646799147353207E-16, -1.000000000000000000 ) ) ;
#3 = DIRECTION ( 'NONE',  ( -3.491481338843133355E-15, 1.224646799147353207E-16, -1.000000000000000000 ) ) ;
#4 = APPROVAL_ROLE ( '' ) ;
#5 = APPROVAL_ROLE ( '' ) ;
#6 = PERSON_AND_ORGANIZATION ( #101, #110 ) ;
#7 = PERSON_AND_ORGANIZATION_ROLE ( 'design_owner' ) ;
#8 = ADVANCED_FACE ( 'NONE', ( #202, #49 ), #173, .T. ) ;
#9 = COORDINATED_UNIVERSAL_TIME_OFFSET ( 1, 0, .AHEAD. ) ;
#10 = APPROVAL ( #175, 'UNSPECIFIED' ) ;
#11 = AXIS2_PLACEMENT_3D ( 'NONE', #93, #122, #45 ) ;
#12 = LOCAL_TIME ( 13, 25, 57.00000000000000000, #165 ) ;
#13 = DIRECTION ( 'NONE',  ( -3.501690807976807030E-31, -1.000000000000000000, -9.856383386231899503E-17 ) ) ;
#14 = CARTESIAN_POINT ( 'NONE',  ( 1.396592535537253342E-13, -4.898587196589413026E-15, 40.00000000000000000 ) ) ;
#15 = ADVANCED_FACE ( 'NONE', ( #153 ), #139, .T. ) ;
#16 = PLANE ( 'NONE',  #47 ) ;
#17 = AXIS2_PLACEMENT_3D ( 'NONE', #14, #3, #91 ) ;
#18 = CYLINDRICAL_SURFACE ( 'NONE', #168, 1.099999999999996314 ) ;
#19 = DATE_TIME_ROLE ( 'creation_date' ) ;
#20 = CALENDAR_DATE ( 2021, 6, 10 ) ;
#21 = AXIS2_PLACEMENT_3D ( 'NONE', #201, #104, #13 ) ;
#22 = COORDINATED_UNIVERSAL_TIME_OFFSET ( 1, 0, .AHEAD. ) ;
#23 = DATE_AND_TIME ( #199, #162 ) ;
#24 = CC_DESIGN_PERSON_AND_ORGANIZATION_ASSIGNMENT ( #6, #69, ( #198 ) ) ;
#25 = EDGE_LOOP ( 'NONE', ( #94 ) ) ;
#26 = DATE_TIME_ROLE ( 'classification_date' ) ;
#27 = APPROVAL_PERSON_ORGANIZATION ( #138, #10, #4 ) ;
#28 = ADVANCED_FACE ( 'NONE', ( #154 ), #16, .T. ) ;
#29 = CARTESIAN_POINT ( 'NONE',  ( 1.386118091520723879E-13, -4.861847792614992166E-15, 39.69999999999999574 ) ) ;
#30 = FACE_OUTER_BOUND ( 'NONE', #66, .T. ) ;
#31 = FACE_BOUND ( 'NONE', #146, .T. ) ;
#32 = DIRECTION ( 'NONE',  ( -3.491481338843133355E-15, 1.224646799147353207E-16, -1.000000000000000000 ) ) ;
#33 = PLANE ( 'NONE',  #43 ) ;
#34 = CARTESIAN_POINT ( 'NONE',  ( 5.586370142149013368E-14, 1.099999999999995426, 16.00000000000000000 ) ) ;
#35 = CALENDAR_DATE ( 2021, 6, 10 ) ;
#36 = COORDINATED_UNIVERSAL_TIME_OFFSET ( 1, 0, .AHEAD. ) ;
#37 = PRODUCT_DEFINITION ( 'UNKNOWN', '', #198, #100 ) ;
#38 = APPROVAL_STATUS ( 'not_yet_approved' ) ;
#39 =( NAMED_UNIT ( * ) SI_UNIT ( $, .STERADIAN. ) SOLID_ANGLE_UNIT ( ) );
#40 = CALENDAR_DATE ( 2021, 6, 10 ) ;
#41 = AXIS2_PLACEMENT_3D ( 'NONE', #169, #152, #131 ) ;
#42 = PERSON_AND_ORGANIZATION ( #101, #110 ) ;
#43 = AXIS2_PLACEMENT_3D ( 'NONE', #188, #2, #107 ) ;
#44 = CARTESIAN_POINT ( 'NONE',  ( 0.0000000000000000000, 0.0000000000000000000, 0.0000000000000000000 ) ) ;
#45 = DIRECTION ( 'NONE',  ( 0.0000000000000000000, 1.000000000000000000, 0.0000000000000000000 ) ) ;
#46 = PRODUCT_RELATED_PRODUCT_CATEGORY ( 'detail', '', ( #183 ) ) ;
#47 = AXIS2_PLACEMENT_3D ( 'NONE', #78, #76, #135 ) ;
#48 = APPROVAL_PERSON_ORGANIZATION ( #42, #84, #145 ) ;
#49 = FACE_OUTER_BOUND ( 'NONE', #163, .T. ) ;
#50 = ORIENTED_EDGE ( 'NONE', *, *, #106, .F. ) ;
#51 = CARTESIAN_POINT ( 'NONE',  ( 5.586370142149013368E-14, 8.248678804640168947E-33, 16.00000000000000000 ) ) ;
#52 = ADVANCED_FACE ( 'NONE', ( #171 ), #33, .F. ) ;
#53 = PERSON_AND_ORGANIZATION ( #101, #110 ) ;
#54 = PERSON_AND_ORGANIZATION ( #101, #110 ) ;
#55 = APPLICATION_PROTOCOL_DEFINITION ( 'international standard', 'config_control_design', 1994, #72 ) ;
#56 = CIRCLE ( 'NONE', #41, 0.8000000000000004885 ) ;
#57 = CC_DESIGN_APPROVAL ( #10, ( #37 ) ) ;
#58 = ORIENTED_EDGE ( 'NONE', *, *, #141, .T. ) ;
#59 = CIRCLE ( 'NONE', #124, 1.099999999999997424 ) ;
#60 = ORIENTED_EDGE ( 'NONE', *, *, #106, .T. ) ;
#61 = CC_DESIGN_SECURITY_CLASSIFICATION ( #108, ( #198 ) ) ;
#62 = EDGE_LOOP ( 'NONE', ( #60 ) ) ;
#63 = APPROVAL ( #38, 'UNSPECIFIED' ) ;
#64 = DIRECTION ( 'NONE',  ( 3.501690807976807030E-31, 1.000000000000000000, 9.856383386231899503E-17 ) ) ;
#65 = DIRECTION ( 'NONE',  ( 3.491481338843133355E-15, -1.224646799147353207E-16, 1.000000000000000000 ) ) ;
#66 = EDGE_LOOP ( 'NONE', ( #58 ) ) ;
#67 = CALENDAR_DATE ( 2021, 6, 10 ) ;
#68 = DATE_AND_TIME ( #20, #126 ) ;
#69 = PERSON_AND_ORGANIZATION_ROLE ( 'creator' ) ;
#70 = UNCERTAINTY_MEASURE_WITH_UNIT (LENGTH_MEASURE( 1.000000000000000082E-05 ), #177, 'distance_accuracy_value', 'NONE');
#71 = SECURITY_CLASSIFICATION_LEVEL ( 'unclassified' ) ;
#72 = APPLICATION_CONTEXT ( 'configuration controlled 3d designs of mechanical parts and assemblies' ) ;
#73 = CIRCLE ( 'NONE', #11, 1.099999999999997424 ) ;
#74 = APPROVAL_PERSON_ORGANIZATION ( #128, #63, #5 ) ;
#75 = EDGE_CURVE ( 'NONE', #134, #134, #56, .T. ) ;
#76 = DIRECTION ( 'NONE',  ( 3.491481338843133355E-15, -1.224646799147353207E-16, 1.000000000000000000 ) ) ;
#77 = PLANE ( 'NONE',  #90 ) ;
#78 = CARTESIAN_POINT ( 'NONE',  ( 5.586370142149013368E-14, 8.248678804640168947E-33, 16.00000000000000000 ) ) ;
#79 = CARTESIAN_POINT ( 'NONE',  ( 1.790914935268619016E-15, -6.281683990751646706E-17, 0.5129384239705031545 ) ) ;
#80 = MANIFOLD_SOLID_BREP ( 'Corps-Déplacer/Copier1[1]', #143 ) ;
#81 = DIRECTION ( 'NONE',  ( 0.0000000000000000000, 0.0000000000000000000, 1.000000000000000000 ) ) ;
#82 = MANIFOLD_SOLID_BREP ( 'Corps-Déplacer/Copier1[2]', #197 ) ;
#83 = MECHANICAL_CONTEXT ( 'NONE', #164, 'mechanical' ) ;
#84 = APPROVAL ( #144, 'UNSPECIFIED' ) ;
#85 = LOCAL_TIME ( 13, 25, 57.00000000000000000, #22 ) ;
#86 = APPROVAL_DATE_TIME ( #68, #63 ) ;
#87 = VERTEX_POINT ( 'NONE', #194 ) ;
#88 = ORIENTED_EDGE ( 'NONE', *, *, #200, .T. ) ;
#89 = DIRECTION ( 'NONE',  ( -3.491481338843133355E-15, 1.224646799147353207E-16, -1.000000000000000000 ) ) ;
#90 = AXIS2_PLACEMENT_3D ( 'NONE', #51, #65, #117 ) ;
#91 = DIRECTION ( 'NONE',  ( 0.0000000000000000000, 1.000000000000000000, 0.0000000000000000000 ) ) ;
#92 = DIRECTION ( 'NONE',  ( 4.275831445896958607E-31, 1.000000000000000000, 1.224646799147353207E-16 ) ) ;
#93 = CARTESIAN_POINT ( 'NONE',  ( 5.586370142149013368E-14, -1.959434878635765131E-15, 16.00000000000000000 ) ) ;
#94 = ORIENTED_EDGE ( 'NONE', *, *, #166, .F. ) ;
#95 = DATE_AND_TIME ( #35, #85 ) ;
#96 = CC_DESIGN_APPROVAL ( #63, ( #198 ) ) ;
#97 = VERTEX_POINT ( 'NONE', #34 ) ;
#98 = VERTEX_POINT ( 'NONE', #159 ) ;
#99 = ORIENTED_EDGE ( 'NONE', *, *, #75, .T. ) ;
#100 = DESIGN_CONTEXT ( 'detailed design', #72, 'design' ) ;
#101 = PERSON ( 'UNSPECIFIED', 'UNSPECIFIED', 'UNSPECIFIED', ('UNSPECIFIED'), ('UNSPECIFIED'), ('UNSPECIFIED') ) ;
#102 = ORIENTED_EDGE ( 'NONE', *, *, #141, .F. ) ;
#103 = ORIENTED_EDGE ( 'NONE', *, *, #75, .F. ) ;
#104 = DIRECTION ( 'NONE',  ( 3.491481338843133355E-15, -1.224646799147353207E-16, 1.000000000000000000 ) ) ;
#105 = ORIENTED_EDGE ( 'NONE', *, *, #200, .F. ) ;
#106 = EDGE_CURVE ( 'NONE', #97, #97, #59, .T. ) ;
#107 = DIRECTION ( 'NONE',  ( 4.275831445896958607E-31, 1.000000000000000000, 1.224646799147353207E-16 ) ) ;
#108 = SECURITY_CLASSIFICATION ( '', '', #71 ) ;
#109 = PERSON_AND_ORGANIZATION_ROLE ( 'classification_officer' ) ;
#110 = ORGANIZATION ( 'UNSPECIFIED', 'UNSPECIFIED', '' ) ;
#111 = CARTESIAN_POINT ( 'NONE',  ( 1.386118091520723879E-13, 1.099999999999995426, 39.69999999999999574 ) ) ;
#112 = CC_DESIGN_DATE_AND_TIME_ASSIGNMENT ( #185, #26, ( #108 ) ) ;
#113 = ORIENTED_EDGE ( 'NONE', *, *, #166, .T. ) ;
#114 = CC_DESIGN_PERSON_AND_ORGANIZATION_ASSIGNMENT ( #174, #7, ( #183 ) ) ;
#115 = CARTESIAN_POINT ( 'NONE',  ( 5.586370142149013368E-14, -1.959434878635765131E-15, 16.00000000000000000 ) ) ;
#116 = DIRECTION ( 'NONE',  ( -3.491481338843133355E-15, 1.224646799147353207E-16, -1.000000000000000000 ) ) ;
#117 = DIRECTION ( 'NONE',  ( -4.275831445896958607E-31, -1.000000000000000000, -1.224646799147353207E-16 ) ) ;
#118 = ADVANCED_FACE ( 'NONE', ( #121, #30 ), #18, .T. ) ;
#119 =( GEOMETRIC_REPRESENTATION_CONTEXT ( 3 ) GLOBAL_UNCERTAINTY_ASSIGNED_CONTEXT ( ( #70 ) ) GLOBAL_UNIT_ASSIGNED_CONTEXT ( ( #177, #196, #39 ) ) REPRESENTATION_CONTEXT ( 'NONE', 'WORKASPACE' ) );
#120 = CC_DESIGN_APPROVAL ( #84, ( #108 ) ) ;
#121 = FACE_OUTER_BOUND ( 'NONE', #25, .T. ) ;
#122 = DIRECTION ( 'NONE',  ( -3.491481338843133355E-15, 1.224646799147353207E-16, -1.000000000000000000 ) ) ;
#123 = DATE_AND_TIME ( #67, #189 ) ;
#124 = AXIS2_PLACEMENT_3D ( 'NONE', #115, #186, #190 ) ;
#125 = CIRCLE ( 'NONE', #149, 1.100000000000000311 ) ;
#126 = LOCAL_TIME ( 13, 25, 57.00000000000000000, #36 ) ;
#127 = PERSON_AND_ORGANIZATION ( #101, #110 ) ;
#128 = PERSON_AND_ORGANIZATION ( #101, #110 ) ;
#129 = CC_DESIGN_DATE_AND_TIME_ASSIGNMENT ( #95, #19, ( #37 ) ) ;
#130 = APPROVAL_DATE_TIME ( #23, #84 ) ;
#131 = DIRECTION ( 'NONE',  ( 0.0000000000000000000, 1.000000000000000000, 0.0000000000000000000 ) ) ;
#132 = AXIS2_PLACEMENT_3D ( 'NONE', #79, #116, #64 ) ;
#133 = DIRECTION ( 'NONE',  ( 0.0000000000000000000, 1.000000000000000000, 0.0000000000000000000 ) ) ;
#134 = VERTEX_POINT ( 'NONE', #140 ) ;
#135 = DIRECTION ( 'NONE',  ( -4.275831445896958607E-31, -1.000000000000000000, -1.224646799147353207E-16 ) ) ;
#136 = FACE_OUTER_BOUND ( 'NONE', #184, .T. ) ;
#137 = DIRECTION ( 'NONE',  ( 1.000000000000000000, 0.0000000000000000000, 0.0000000000000000000 ) ) ;
#138 = PERSON_AND_ORGANIZATION ( #101, #110 ) ;
#139 = CONICAL_SURFACE ( 'NONE', #21, 1.099999999999995426, 1.134464013796309123 ) ;
#140 = CARTESIAN_POINT ( 'NONE',  ( 1.396592535537253342E-13, 0.7999999999999956035, 40.00000000000000000 ) ) ;
#141 = EDGE_CURVE ( 'NONE', #98, #98, #73, .T. ) ;
#142 = COORDINATED_UNIVERSAL_TIME_OFFSET ( 1, 0, .AHEAD. ) ;
#143 = CLOSED_SHELL ( 'NONE', ( #182, #8, #172, #52 ) ) ;
#144 = APPROVAL_STATUS ( 'not_yet_approved' ) ;
#145 = APPROVAL_ROLE ( '' ) ;
#146 = EDGE_LOOP ( 'NONE', ( #99 ) ) ;
#147 = SHAPE_DEFINITION_REPRESENTATION ( #148, #158 ) ;
#148 = PRODUCT_DEFINITION_SHAPE ( 'NONE', 'NONE',  #37 ) ;
#149 = AXIS2_PLACEMENT_3D ( 'NONE', #29, #89, #133 ) ;
#150 = EDGE_LOOP ( 'NONE', ( #113 ) ) ;
#151 = CC_DESIGN_PERSON_AND_ORGANIZATION_ASSIGNMENT ( #54, #109, ( #108 ) ) ;
#152 = DIRECTION ( 'NONE',  ( -3.491481338843133355E-15, 1.224646799147353207E-16, -1.000000000000000000 ) ) ;
#153 = FACE_OUTER_BOUND ( 'NONE', #150, .T. ) ;
#154 = FACE_OUTER_BOUND ( 'NONE', #180, .T. ) ;
#155 = AXIS2_PLACEMENT_3D ( 'NONE', #170, #167, #92 ) ;
#156 = EDGE_LOOP ( 'NONE', ( #103 ) ) ;
#157 = PERSON_AND_ORGANIZATION_ROLE ( 'creator' ) ;
#158 = ADVANCED_BREP_SHAPE_REPRESENTATION ( '119', ( #80, #82, #1 ), #119 ) ;
#159 = CARTESIAN_POINT ( 'NONE',  ( 5.586370142149013368E-14, 1.099999999999995426, 16.00000000000000000 ) ) ;
#160 = VERTEX_POINT ( 'NONE', #111 ) ;
#161 = CONICAL_SURFACE ( 'NONE', #17, 0.8000000000000004885, 0.7853981633974452814 ) ;
#162 = LOCAL_TIME ( 13, 25, 57.00000000000000000, #9 ) ;
#163 = EDGE_LOOP ( 'NONE', ( #88 ) ) ;
#164 = APPLICATION_CONTEXT ( 'configuration controlled 3d designs of mechanical parts and assemblies' ) ;
#165 = COORDINATED_UNIVERSAL_TIME_OFFSET ( 1, 0, .AHEAD. ) ;
#166 = EDGE_CURVE ( 'NONE', #87, #87, #181, .T. ) ;
#167 = DIRECTION ( 'NONE',  ( -3.491481338843133355E-15, 1.224646799147353207E-16, -1.000000000000000000 ) ) ;
#168 = AXIS2_PLACEMENT_3D ( 'NONE', #44, #32, #203 ) ;
#169 = CARTESIAN_POINT ( 'NONE',  ( 1.396592535537253342E-13, -4.898587196589413026E-15, 40.00000000000000000 ) ) ;
#170 = CARTESIAN_POINT ( 'NONE',  ( 0.0000000000000000000, 0.0000000000000000000, 0.0000000000000000000 ) ) ;
#171 = FACE_OUTER_BOUND ( 'NONE', #156, .T. ) ;
#172 = ADVANCED_FACE ( 'NONE', ( #136, #31 ), #161, .T. ) ;
#173 = CYLINDRICAL_SURFACE ( 'NONE', #155, 1.099999999999998979 ) ;
#174 = PERSON_AND_ORGANIZATION ( #101, #110 ) ;
#175 = APPROVAL_STATUS ( 'not_yet_approved' ) ;
#176 = APPLICATION_PROTOCOL_DEFINITION ( 'international standard', 'config_control_design', 1994, #164 ) ;
#177 =( LENGTH_UNIT ( ) NAMED_UNIT ( * ) SI_UNIT ( .MILLI., .METRE. ) );
#178 = CARTESIAN_POINT ( 'NONE',  ( 0.0000000000000000000, 0.0000000000000000000, 0.0000000000000000000 ) ) ;
#179 = CC_DESIGN_PERSON_AND_ORGANIZATION_ASSIGNMENT ( #53, #157, ( #37 ) ) ;
#180 = EDGE_LOOP ( 'NONE', ( #102 ) ) ;
#181 = CIRCLE ( 'NONE', #132, 1.099999999999995426 ) ;
#182 = ADVANCED_FACE ( 'NONE', ( #191 ), #77, .F. ) ;
#183 = PRODUCT ( '119', '119', '', ( #83 ) ) ;
#184 = EDGE_LOOP ( 'NONE', ( #105 ) ) ;
#185 = DATE_AND_TIME ( #40, #12 ) ;
#186 = DIRECTION ( 'NONE',  ( -3.491481338843133355E-15, 1.224646799147353207E-16, -1.000000000000000000 ) ) ;
#187 = EDGE_LOOP ( 'NONE', ( #50 ) ) ;
#188 = CARTESIAN_POINT ( 'NONE',  ( 1.396592535537253342E-13, 5.999039130647360640E-33, 40.00000000000000000 ) ) ;
#189 = LOCAL_TIME ( 13, 25, 57.00000000000000000, #142 ) ;
#190 = DIRECTION ( 'NONE',  ( 0.0000000000000000000, 1.000000000000000000, 0.0000000000000000000 ) ) ;
#191 = FACE_OUTER_BOUND ( 'NONE', #62, .T. ) ;
#192 = APPROVAL_DATE_TIME ( #123, #10 ) ;
#193 = CC_DESIGN_PERSON_AND_ORGANIZATION_ASSIGNMENT ( #127, #195, ( #198 ) ) ;
#194 = CARTESIAN_POINT ( 'NONE',  ( 1.790914935268619410E-15, 1.099999999999995426, 0.5129384239705032655 ) ) ;
#195 = PERSON_AND_ORGANIZATION_ROLE ( 'design_supplier' ) ;
#196 =( NAMED_UNIT ( * ) PLANE_ANGLE_UNIT ( ) SI_UNIT ( $, .RADIAN. ) );
#197 = CLOSED_SHELL ( 'NONE', ( #15, #118, #28 ) ) ;
#198 = PRODUCT_DEFINITION_FORMATION_WITH_SPECIFIED_SOURCE ( 'ANY', '', #183, .NOT_KNOWN. ) ;
#199 = CALENDAR_DATE ( 2021, 6, 10 ) ;
#200 = EDGE_CURVE ( 'NONE', #160, #160, #125, .T. ) ;
#201 = CARTESIAN_POINT ( 'NONE',  ( 1.790914935268619016E-15, -6.281683990751646706E-17, 0.5129384239705031545 ) ) ;
#202 = FACE_OUTER_BOUND ( 'NONE', #187, .T. ) ;
#203 = DIRECTION ( 'NONE',  ( 4.275831445896958607E-31, 1.000000000000000000, 1.224646799147353454E-16 ) ) ;
ENDSEC;
END-ISO-10303-21;
