ISO-10303-21;
HEADER;
FILE_DESCRIPTION (( 'STEP AP203' ),
    '1' );
FILE_NAME ('118.step',
    '2021-10-06T11:25:56',
    ( '' ),
    ( '' ),
    'SwSTEP 2.0',
    'SolidWorks 2019',
    '' );
FILE_SCHEMA (( 'CONFIG_CONTROL_DESIGN' ));
ENDSEC;

DATA;
#1 = CALENDAR_DATE ( 2021, 6, 10 ) ;
#2 = DIRECTION ( 'NONE',  ( 1.000000000000000000, 0.0000000000000000000, 0.0000000000000000000 ) ) ;
#3 = COORDINATED_UNIVERSAL_TIME_OFFSET ( 1, 0, .AHEAD. ) ;
#4 = PERSON_AND_ORGANIZATION ( #138, #54 ) ;
#5 = DATE_AND_TIME ( #18, #57 ) ;
#6 = CC_DESIGN_DATE_AND_TIME_ASSIGNMENT ( #5, #86, ( #170 ) ) ;
#7 = CC_DESIGN_PERSON_AND_ORGANIZATION_ASSIGNMENT ( #55, #101, ( #74 ) ) ;
#8 = APPROVAL_PERSON_ORGANIZATION ( #75, #35, #157 ) ;
#9 = PLANE ( 'NONE',  #187 ) ;
#10 = APPLICATION_CONTEXT ( 'configuration controlled 3d designs of mechanical parts and assemblies' ) ;
#11 = FACE_OUTER_BOUND ( 'NONE', #126, .T. ) ;
#12 = DIRECTION ( 'NONE',  ( -3.491481338843133355E-15, 1.224646799147353207E-16, -1.000000000000000000 ) ) ;
#13 = ADVANCED_FACE ( 'NONE', ( #127 ), #198, .T. ) ;
#14 = DIRECTION ( 'NONE',  ( 4.275831445896958607E-31, 1.000000000000000000, 1.224646799147353207E-16 ) ) ;
#15 = VERTEX_POINT ( 'NONE', #83 ) ;
#16 = APPROVAL_PERSON_ORGANIZATION ( #113, #67, #21 ) ;
#17 = PERSON_AND_ORGANIZATION_ROLE ( 'design_owner' ) ;
#18 = CALENDAR_DATE ( 2021, 6, 10 ) ;
#19 = LOCAL_TIME ( 13, 25, 56.00000000000000000, #3 ) ;
#20 = DATE_AND_TIME ( #58, #158 ) ;
#21 = APPROVAL_ROLE ( '' ) ;
#22 = APPROVAL_STATUS ( 'not_yet_approved' ) ;
#23 = ORIENTED_EDGE ( 'NONE', *, *, #139, .T. ) ;
#24 = CIRCLE ( 'NONE', #168, 1.049999999999997602 ) ;
#25 = AXIS2_PLACEMENT_3D ( 'NONE', #99, #141, #2 ) ;
#26 = ORIENTED_EDGE ( 'NONE', *, *, #92, .F. ) ;
#27 = ADVANCED_FACE ( 'NONE', ( #202 ), #110, .F. ) ;
#28 = AXIS2_PLACEMENT_3D ( 'NONE', #64, #109, #51 ) ;
#29 = CARTESIAN_POINT ( 'NONE',  ( 0.0000000000000000000, 0.0000000000000000000, 0.0000000000000000000 ) ) ;
#30 = CARTESIAN_POINT ( 'NONE',  ( 5.586370142149013368E-14, 1.049999999999995604, 16.00000000000000000 ) ) ;
#31 = DIRECTION ( 'NONE',  ( 0.0000000000000000000, 1.000000000000000000, 0.0000000000000000000 ) ) ;
#32 = DIRECTION ( 'NONE',  ( -3.491481338843133355E-15, 1.224646799147353207E-16, -1.000000000000000000 ) ) ;
#33 = ADVANCED_BREP_SHAPE_REPRESENTATION ( '118', ( #200, #76, #25 ), #123 ) ;
#34 = FACE_OUTER_BOUND ( 'NONE', #147, .T. ) ;
#35 = APPROVAL ( #171, 'UNSPECIFIED' ) ;
#36 = AXIS2_PLACEMENT_3D ( 'NONE', #122, #32, #97 ) ;
#37 = MECHANICAL_CONTEXT ( 'NONE', #10, 'mechanical' ) ;
#38 = PERSON_AND_ORGANIZATION ( #138, #54 ) ;
#39 = PERSON_AND_ORGANIZATION_ROLE ( 'creator' ) ;
#40 = ORIENTED_EDGE ( 'NONE', *, *, #128, .F. ) ;
#41 = COORDINATED_UNIVERSAL_TIME_OFFSET ( 1, 0, .AHEAD. ) ;
#42 = ORIENTED_EDGE ( 'NONE', *, *, #92, .T. ) ;
#43 = ORIENTED_EDGE ( 'NONE', *, *, #180, .F. ) ;
#44 = EDGE_LOOP ( 'NONE', ( #117 ) ) ;
#45 = ORIENTED_EDGE ( 'NONE', *, *, #139, .F. ) ;
#46 = AXIS2_PLACEMENT_3D ( 'NONE', #82, #137, #165 ) ;
#47 = CIRCLE ( 'NONE', #195, 1.049999999999997602 ) ;
#48 = FACE_BOUND ( 'NONE', #160, .T. ) ;
#49 = CARTESIAN_POINT ( 'NONE',  ( 5.586370142149013368E-14, 1.049999999999995604, 16.00000000000000000 ) ) ;
#50 = CARTESIAN_POINT ( 'NONE',  ( 5.586370142149013368E-14, -1.959434878635765131E-15, 16.00000000000000000 ) ) ;
#51 = DIRECTION ( 'NONE',  ( -3.668437989309036103E-31, -1.000000000000000000, -1.032573497605246662E-16 ) ) ;
#52 = CC_DESIGN_DATE_AND_TIME_ASSIGNMENT ( #68, #129, ( #162 ) ) ;
#53 = CLOSED_SHELL ( 'NONE', ( #194, #169, #13 ) ) ;
#54 = ORGANIZATION ( 'UNSPECIFIED', 'UNSPECIFIED', '' ) ;
#55 = PERSON_AND_ORGANIZATION ( #138, #54 ) ;
#56 = ADVANCED_FACE ( 'NONE', ( #181, #161 ), #197, .T. ) ;
#57 = LOCAL_TIME ( 13, 25, 56.00000000000000000, #41 ) ;
#58 = CALENDAR_DATE ( 2021, 6, 10 ) ;
#59 = DIRECTION ( 'NONE',  ( -3.491481338843133355E-15, 1.224646799147353207E-16, -1.000000000000000000 ) ) ;
#60 = DIRECTION ( 'NONE',  ( 3.668437989309036103E-31, 1.000000000000000000, 1.032573497605246662E-16 ) ) ;
#61 = PRODUCT_RELATED_PRODUCT_CATEGORY ( 'detail', '', ( #190 ) ) ;
#62 = VERTEX_POINT ( 'NONE', #49 ) ;
#63 = FACE_OUTER_BOUND ( 'NONE', #159, .T. ) ;
#64 = CARTESIAN_POINT ( 'NONE',  ( 1.709509710938227081E-15, -5.996152900262935268E-17, 0.4896230410627529506 ) ) ;
#65 = CIRCLE ( 'NONE', #80, 1.049999999999995604 ) ;
#66 = PRODUCT_DEFINITION_SHAPE ( 'NONE', 'NONE',  #162 ) ;
#67 = APPROVAL ( #173, 'UNSPECIFIED' ) ;
#68 = DATE_AND_TIME ( #1, #19 ) ;
#69 = CLOSED_SHELL ( 'NONE', ( #191, #56, #176, #27 ) ) ;
#70 = CIRCLE ( 'NONE', #201, 1.050000000000000044 ) ;
#71 = DATE_AND_TIME ( #142, #188 ) ;
#72 = CC_DESIGN_PERSON_AND_ORGANIZATION_ASSIGNMENT ( #4, #116, ( #170 ) ) ;
#73 = APPLICATION_PROTOCOL_DEFINITION ( 'international standard', 'config_control_design', 1994, #10 ) ;
#74 = PRODUCT_DEFINITION_FORMATION_WITH_SPECIFIED_SOURCE ( 'ANY', '', #190, .NOT_KNOWN. ) ;
#75 = PERSON_AND_ORGANIZATION ( #138, #54 ) ;
#76 = MANIFOLD_SOLID_BREP ( 'Corps-Déplacer/Copier1[2]', #53 ) ;
#77 = DIRECTION ( 'NONE',  ( -3.491481338843133355E-15, 1.224646799147353207E-16, -1.000000000000000000 ) ) ;
#78 = CARTESIAN_POINT ( 'NONE',  ( 1.326762908760390423E-13, -4.653657836759941941E-15, 38.00000000000000000 ) ) ;
#79 = DIRECTION ( 'NONE',  ( -3.491481338843133355E-15, 1.224646799147353207E-16, -1.000000000000000000 ) ) ;
#80 = AXIS2_PLACEMENT_3D ( 'NONE', #106, #134, #60 ) ;
#81 = CARTESIAN_POINT ( 'NONE',  ( 1.326762908760390423E-13, 5.624099184981898975E-33, 38.00000000000000000 ) ) ;
#82 = CARTESIAN_POINT ( 'NONE',  ( 5.586370142149013368E-14, 7.873738858974704545E-33, 16.00000000000000000 ) ) ;
#83 = CARTESIAN_POINT ( 'NONE',  ( 1.316288464743861212E-13, 1.049999999999995604, 37.69999999999999574 ) ) ;
#84 = CC_DESIGN_APPROVAL ( #125, ( #74 ) ) ;
#85 = PERSON_AND_ORGANIZATION ( #138, #54 ) ;
#86 = DATE_TIME_ROLE ( 'classification_date' ) ;
#87 = AXIS2_PLACEMENT_3D ( 'NONE', #94, #12, #107 ) ;
#88 = COORDINATED_UNIVERSAL_TIME_OFFSET ( 1, 0, .AHEAD. ) ;
#89 = PERSON_AND_ORGANIZATION_ROLE ( 'creator' ) ;
#90 = APPROVAL_DATE_TIME ( #71, #35 ) ;
#91 = AXIS2_PLACEMENT_3D ( 'NONE', #78, #77, #149 ) ;
#92 = EDGE_CURVE ( 'NONE', #163, #163, #24, .T. ) ;
#93 = ORIENTED_EDGE ( 'NONE', *, *, #180, .T. ) ;
#94 = CARTESIAN_POINT ( 'NONE',  ( 1.326762908760390423E-13, -4.653657836759941941E-15, 38.00000000000000000 ) ) ;
#95 = VERTEX_POINT ( 'NONE', #136 ) ;
#96 = DIRECTION ( 'NONE',  ( -3.491481338843133355E-15, 1.224646799147353207E-16, -1.000000000000000000 ) ) ;
#97 = DIRECTION ( 'NONE',  ( 4.275831445896958607E-31, 1.000000000000000000, 1.224646799147353207E-16 ) ) ;
#98 =( LENGTH_UNIT ( ) NAMED_UNIT ( * ) SI_UNIT ( .MILLI., .METRE. ) );
#99 = CARTESIAN_POINT ( 'NONE',  ( 0.0000000000000000000, 0.0000000000000000000, 0.0000000000000000000 ) ) ;
#100 = DESIGN_CONTEXT ( 'detailed design', #152, 'design' ) ;
#101 = PERSON_AND_ORGANIZATION_ROLE ( 'design_supplier' ) ;
#102 = ORIENTED_EDGE ( 'NONE', *, *, #119, .T. ) ;
#103 = COORDINATED_UNIVERSAL_TIME_OFFSET ( 1, 0, .AHEAD. ) ;
#104 = ORIENTED_EDGE ( 'NONE', *, *, #119, .F. ) ;
#105 = CC_DESIGN_PERSON_AND_ORGANIZATION_ASSIGNMENT ( #114, #17, ( #190 ) ) ;
#106 = CARTESIAN_POINT ( 'NONE',  ( 1.709509710938227081E-15, -5.996152900262935268E-17, 0.4896230410627529506 ) ) ;
#107 = DIRECTION ( 'NONE',  ( 0.0000000000000000000, 1.000000000000000000, 0.0000000000000000000 ) ) ;
#108 = VERTEX_POINT ( 'NONE', #154 ) ;
#109 = DIRECTION ( 'NONE',  ( 3.491481338843133355E-15, -1.224646799147353207E-16, 1.000000000000000000 ) ) ;
#110 = PLANE ( 'NONE',  #182 ) ;
#111 = CONICAL_SURFACE ( 'NONE', #28, 1.049999999999995604, 1.134464013796309123 ) ;
#112 =( NAMED_UNIT ( * ) SI_UNIT ( $, .STERADIAN. ) SOLID_ANGLE_UNIT ( ) );
#113 = PERSON_AND_ORGANIZATION ( #138, #54 ) ;
#114 = PERSON_AND_ORGANIZATION ( #138, #54 ) ;
#115 = CONICAL_SURFACE ( 'NONE', #87, 0.7500000000000003331, 0.7853981633974452814 ) ;
#116 = PERSON_AND_ORGANIZATION_ROLE ( 'classification_officer' ) ;
#117 = ORIENTED_EDGE ( 'NONE', *, *, #128, .T. ) ;
#118 = CC_DESIGN_APPROVAL ( #67, ( #162 ) ) ;
#119 = EDGE_CURVE ( 'NONE', #95, #95, #177, .T. ) ;
#120 = EDGE_LOOP ( 'NONE', ( #40 ) ) ;
#121 = CARTESIAN_POINT ( 'NONE',  ( 1.316288464743861212E-13, -4.616918432785521081E-15, 37.69999999999999574 ) ) ;
#122 = CARTESIAN_POINT ( 'NONE',  ( 0.0000000000000000000, 0.0000000000000000000, 0.0000000000000000000 ) ) ;
#123 =( GEOMETRIC_REPRESENTATION_CONTEXT ( 3 ) GLOBAL_UNCERTAINTY_ASSIGNED_CONTEXT ( ( #167 ) ) GLOBAL_UNIT_ASSIGNED_CONTEXT ( ( #98, #193, #112 ) ) REPRESENTATION_CONTEXT ( 'NONE', 'WORKASPACE' ) );
#124 = DIRECTION ( 'NONE',  ( 0.0000000000000000000, 1.000000000000000000, 0.0000000000000000000 ) ) ;
#125 = APPROVAL ( #22, 'UNSPECIFIED' ) ;
#126 = EDGE_LOOP ( 'NONE', ( #42 ) ) ;
#127 = FACE_OUTER_BOUND ( 'NONE', #196, .T. ) ;
#128 = EDGE_CURVE ( 'NONE', #62, #62, #47, .T. ) ;
#129 = DATE_TIME_ROLE ( 'creation_date' ) ;
#130 = APPLICATION_PROTOCOL_DEFINITION ( 'international standard', 'config_control_design', 1994, #152 ) ;
#131 = APPROVAL_DATE_TIME ( #174, #125 ) ;
#132 = CC_DESIGN_APPROVAL ( #35, ( #170 ) ) ;
#133 = SHAPE_DEFINITION_REPRESENTATION ( #66, #33 ) ;
#134 = DIRECTION ( 'NONE',  ( -3.491481338843133355E-15, 1.224646799147353207E-16, -1.000000000000000000 ) ) ;
#135 = DIRECTION ( 'NONE',  ( -4.275831445896958607E-31, -1.000000000000000000, -1.224646799147353207E-16 ) ) ;
#136 = CARTESIAN_POINT ( 'NONE',  ( 1.326762908760390423E-13, 0.7499999999999956701, 38.00000000000000000 ) ) ;
#137 = DIRECTION ( 'NONE',  ( 3.491481338843133355E-15, -1.224646799147353207E-16, 1.000000000000000000 ) ) ;
#138 = PERSON ( 'UNSPECIFIED', 'UNSPECIFIED', 'UNSPECIFIED', ('UNSPECIFIED'), ('UNSPECIFIED'), ('UNSPECIFIED') ) ;
#139 = EDGE_CURVE ( 'NONE', #108, #108, #65, .T. ) ;
#140 = APPROVAL_DATE_TIME ( #20, #67 ) ;
#141 = DIRECTION ( 'NONE',  ( 0.0000000000000000000, 0.0000000000000000000, 1.000000000000000000 ) ) ;
#142 = CALENDAR_DATE ( 2021, 6, 10 ) ;
#143 = SECURITY_CLASSIFICATION_LEVEL ( 'unclassified' ) ;
#144 = EDGE_LOOP ( 'NONE', ( #104 ) ) ;
#145 = CALENDAR_DATE ( 2021, 6, 10 ) ;
#146 = EDGE_LOOP ( 'NONE', ( #93 ) ) ;
#147 = EDGE_LOOP ( 'NONE', ( #43 ) ) ;
#148 = DIRECTION ( 'NONE',  ( 4.275831445896958607E-31, 1.000000000000000000, 1.224646799147353207E-16 ) ) ;
#149 = DIRECTION ( 'NONE',  ( 0.0000000000000000000, 1.000000000000000000, 0.0000000000000000000 ) ) ;
#150 = CYLINDRICAL_SURFACE ( 'NONE', #192, 1.049999999999996714 ) ;
#151 = CARTESIAN_POINT ( 'NONE',  ( 5.586370142149013368E-14, -1.959434878635765131E-15, 16.00000000000000000 ) ) ;
#152 = APPLICATION_CONTEXT ( 'configuration controlled 3d designs of mechanical parts and assemblies' ) ;
#153 = CC_DESIGN_PERSON_AND_ORGANIZATION_ASSIGNMENT ( #85, #89, ( #162 ) ) ;
#154 = CARTESIAN_POINT ( 'NONE',  ( 1.709509710938227475E-15, 1.049999999999995604, 0.4896230410627530616 ) ) ;
#155 = CC_DESIGN_PERSON_AND_ORGANIZATION_ASSIGNMENT ( #38, #39, ( #74 ) ) ;
#156 = PERSON_AND_ORGANIZATION ( #138, #54 ) ;
#157 = APPROVAL_ROLE ( '' ) ;
#158 = LOCAL_TIME ( 13, 25, 56.00000000000000000, #103 ) ;
#159 = EDGE_LOOP ( 'NONE', ( #23 ) ) ;
#160 = EDGE_LOOP ( 'NONE', ( #102 ) ) ;
#161 = FACE_OUTER_BOUND ( 'NONE', #146, .T. ) ;
#162 = PRODUCT_DEFINITION ( 'UNKNOWN', '', #74, #100 ) ;
#163 = VERTEX_POINT ( 'NONE', #30 ) ;
#164 = DIRECTION ( 'NONE',  ( -3.491481338843133355E-15, 1.224646799147353207E-16, -1.000000000000000000 ) ) ;
#165 = DIRECTION ( 'NONE',  ( -4.275831445896958607E-31, -1.000000000000000000, -1.224646799147353207E-16 ) ) ;
#166 = DIRECTION ( 'NONE',  ( 0.0000000000000000000, 1.000000000000000000, 0.0000000000000000000 ) ) ;
#167 = UNCERTAINTY_MEASURE_WITH_UNIT (LENGTH_MEASURE( 1.000000000000000082E-05 ), #98, 'distance_accuracy_value', 'NONE');
#168 = AXIS2_PLACEMENT_3D ( 'NONE', #50, #59, #166 ) ;
#169 = ADVANCED_FACE ( 'NONE', ( #199, #11 ), #150, .T. ) ;
#170 = SECURITY_CLASSIFICATION ( '', '', #143 ) ;
#171 = APPROVAL_STATUS ( 'not_yet_approved' ) ;
#172 = COORDINATED_UNIVERSAL_TIME_OFFSET ( 1, 0, .AHEAD. ) ;
#173 = APPROVAL_STATUS ( 'not_yet_approved' ) ;
#174 = DATE_AND_TIME ( #145, #178 ) ;
#175 = EDGE_LOOP ( 'NONE', ( #45 ) ) ;
#176 = ADVANCED_FACE ( 'NONE', ( #34, #48 ), #115, .T. ) ;
#177 = CIRCLE ( 'NONE', #91, 0.7500000000000003331 ) ;
#178 = LOCAL_TIME ( 13, 25, 56.00000000000000000, #172 ) ;
#179 = CARTESIAN_POINT ( 'NONE',  ( 5.586370142149013368E-14, 7.873738858974704545E-33, 16.00000000000000000 ) ) ;
#180 = EDGE_CURVE ( 'NONE', #15, #15, #70, .T. ) ;
#181 = FACE_OUTER_BOUND ( 'NONE', #120, .T. ) ;
#182 = AXIS2_PLACEMENT_3D ( 'NONE', #81, #164, #148 ) ;
#183 = APPROVAL_PERSON_ORGANIZATION ( #156, #125, #189 ) ;
#184 = DIRECTION ( 'NONE',  ( -3.491481338843133355E-15, 1.224646799147353207E-16, -1.000000000000000000 ) ) ;
#185 = FACE_OUTER_BOUND ( 'NONE', #44, .T. ) ;
#186 = DIRECTION ( 'NONE',  ( 3.491481338843133355E-15, -1.224646799147353207E-16, 1.000000000000000000 ) ) ;
#187 = AXIS2_PLACEMENT_3D ( 'NONE', #179, #186, #135 ) ;
#188 = LOCAL_TIME ( 13, 25, 56.00000000000000000, #88 ) ;
#189 = APPROVAL_ROLE ( '' ) ;
#190 = PRODUCT ( '118', '118', '', ( #37 ) ) ;
#191 = ADVANCED_FACE ( 'NONE', ( #185 ), #9, .F. ) ;
#192 = AXIS2_PLACEMENT_3D ( 'NONE', #29, #184, #14 ) ;
#193 =( NAMED_UNIT ( * ) PLANE_ANGLE_UNIT ( ) SI_UNIT ( $, .RADIAN. ) );
#194 = ADVANCED_FACE ( 'NONE', ( #63 ), #111, .T. ) ;
#195 = AXIS2_PLACEMENT_3D ( 'NONE', #151, #96, #31 ) ;
#196 = EDGE_LOOP ( 'NONE', ( #26 ) ) ;
#197 = CYLINDRICAL_SURFACE ( 'NONE', #36, 1.049999999999998934 ) ;
#198 = PLANE ( 'NONE',  #46 ) ;
#199 = FACE_OUTER_BOUND ( 'NONE', #175, .T. ) ;
#200 = MANIFOLD_SOLID_BREP ( 'Corps-Déplacer/Copier1[1]', #69 ) ;
#201 = AXIS2_PLACEMENT_3D ( 'NONE', #121, #79, #124 ) ;
#202 = FACE_OUTER_BOUND ( 'NONE', #144, .T. ) ;
#203 = CC_DESIGN_SECURITY_CLASSIFICATION ( #170, ( #74 ) ) ;
ENDSEC;
END-ISO-10303-21;
