ISO-10303-21;
HEADER;
FILE_DESCRIPTION (( 'STEP AP203' ),
    '1' );
FILE_NAME ('117.step',
    '2021-10-06T11:25:55',
    ( '' ),
    ( '' ),
    'SwSTEP 2.0',
    'SolidWorks 2019',
    '' );
FILE_SCHEMA (( 'CONFIG_CONTROL_DESIGN' ));
ENDSEC;

DATA;
#1 = EDGE_LOOP ( 'NONE', ( #164 ) ) ;
#2 = CARTESIAN_POINT ( 'NONE',  ( 5.586370142149013368E-14, 7.498798913309238775E-33, 16.00000000000000000 ) ) ;
#3 = ORIENTED_EDGE ( 'NONE', *, *, #49, .F. ) ;
#4 = DIRECTION ( 'NONE',  ( 0.0000000000000000000, 0.0000000000000000000, 1.000000000000000000 ) ) ;
#5 =( NAMED_UNIT ( * ) PLANE_ANGLE_UNIT ( ) SI_UNIT ( $, .RADIAN. ) );
#6 = FACE_OUTER_BOUND ( 'NONE', #162, .T. ) ;
#7 = CARTESIAN_POINT ( 'NONE',  ( 1.326762908760390423E-13, 5.249159239316433205E-33, 38.00000000000000000 ) ) ;
#8 = ADVANCED_FACE ( 'NONE', ( #19 ), #41, .T. ) ;
#9 = DATE_TIME_ROLE ( 'classification_date' ) ;
#10 = DATE_TIME_ROLE ( 'creation_date' ) ;
#11 = DATE_AND_TIME ( #13, #123 ) ;
#12 = APPROVAL_PERSON_ORGANIZATION ( #93, #146, #192 ) ;
#13 = CALENDAR_DATE ( 2021, 6, 10 ) ;
#14 = ADVANCED_FACE ( 'NONE', ( #131, #84 ), #87, .T. ) ;
#15 = EDGE_LOOP ( 'NONE', ( #125 ) ) ;
#16 = ORIENTED_EDGE ( 'NONE', *, *, #135, .F. ) ;
#17 = ORIENTED_EDGE ( 'NONE', *, *, #126, .F. ) ;
#18 = CC_DESIGN_SECURITY_CLASSIFICATION ( #106, ( #99 ) ) ;
#19 = FACE_OUTER_BOUND ( 'NONE', #65, .T. ) ;
#20 = PERSON_AND_ORGANIZATION_ROLE ( 'design_owner' ) ;
#21 = VERTEX_POINT ( 'NONE', #165 ) ;
#22 = MECHANICAL_CONTEXT ( 'NONE', #94, 'mechanical' ) ;
#23 = CC_DESIGN_PERSON_AND_ORGANIZATION_ASSIGNMENT ( #92, #40, ( #99 ) ) ;
#24 = DIRECTION ( 'NONE',  ( 0.0000000000000000000, 1.000000000000000000, 0.0000000000000000000 ) ) ;
#25 = AXIS2_PLACEMENT_3D ( 'NONE', #34, #201, #24 ) ;
#26 = CALENDAR_DATE ( 2021, 6, 10 ) ;
#27 = DATE_AND_TIME ( #145, #74 ) ;
#28 = APPROVAL_ROLE ( '' ) ;
#29 = AXIS2_PLACEMENT_3D ( 'NONE', #2, #132, #196 ) ;
#30 = EDGE_LOOP ( 'NONE', ( #17 ) ) ;
#31 = CC_DESIGN_APPROVAL ( #179, ( #130 ) ) ;
#32 = FACE_OUTER_BOUND ( 'NONE', #15, .T. ) ;
#33 = CARTESIAN_POINT ( 'NONE',  ( 0.0000000000000000000, 0.0000000000000000000, 0.0000000000000000000 ) ) ;
#34 = CARTESIAN_POINT ( 'NONE',  ( 5.586370142149013368E-14, -1.959434878635765131E-15, 16.00000000000000000 ) ) ;
#35 = DIRECTION ( 'NONE',  ( 0.0000000000000000000, 1.000000000000000000, 0.0000000000000000000 ) ) ;
#36 = PERSON_AND_ORGANIZATION ( #127, #138 ) ;
#37 = CIRCLE ( 'NONE', #189, 0.9999999999999954481 ) ;
#38 = ADVANCED_FACE ( 'NONE', ( #149 ), #174, .T. ) ;
#39 = ORIENTED_EDGE ( 'NONE', *, *, #49, .T. ) ;
#40 = PERSON_AND_ORGANIZATION_ROLE ( 'design_supplier' ) ;
#41 = CONICAL_SURFACE ( 'NONE', #63, 0.9999999999999954481, 1.134464013796309123 ) ;
#42 = CC_DESIGN_PERSON_AND_ORGANIZATION_ASSIGNMENT ( #61, #107, ( #130 ) ) ;
#43 = PRODUCT_DEFINITION_SHAPE ( 'NONE', 'NONE',  #130 ) ;
#44 = UNCERTAINTY_MEASURE_WITH_UNIT (LENGTH_MEASURE( 1.000000000000000082E-05 ), #102, 'distance_accuracy_value', 'NONE');
#45 = ORIENTED_EDGE ( 'NONE', *, *, #135, .T. ) ;
#46 = DIRECTION ( 'NONE',  ( 3.491481338843133355E-15, -1.224646799147353207E-16, 1.000000000000000000 ) ) ;
#47 = FACE_OUTER_BOUND ( 'NONE', #30, .T. ) ;
#48 = APPLICATION_PROTOCOL_DEFINITION ( 'international standard', 'config_control_design', 1994, #94 ) ;
#49 = EDGE_CURVE ( 'NONE', #122, #122, #147, .T. ) ;
#50 = LOCAL_TIME ( 13, 25, 55.00000000000000000, #190 ) ;
#51 = APPLICATION_PROTOCOL_DEFINITION ( 'international standard', 'config_control_design', 1994, #141 ) ;
#52 = FACE_OUTER_BOUND ( 'NONE', #178, .T. ) ;
#53 = CARTESIAN_POINT ( 'NONE',  ( 1.316288464743861212E-13, 0.9999999999999954481, 37.69999999999999574 ) ) ;
#54 = AXIS2_PLACEMENT_3D ( 'NONE', #56, #103, #86 ) ;
#55 = AXIS2_PLACEMENT_3D ( 'NONE', #101, #183, #70 ) ;
#56 = CARTESIAN_POINT ( 'NONE',  ( 5.586370142149013368E-14, -1.959434878635765131E-15, 16.00000000000000000 ) ) ;
#57 = COORDINATED_UNIVERSAL_TIME_OFFSET ( 1, 0, .AHEAD. ) ;
#58 = CC_DESIGN_DATE_AND_TIME_ASSIGNMENT ( #170, #10, ( #130 ) ) ;
#59 = CC_DESIGN_APPROVAL ( #146, ( #106 ) ) ;
#60 = DIRECTION ( 'NONE',  ( -4.275831445896958607E-31, -1.000000000000000000, -1.224646799147353207E-16 ) ) ;
#61 = PERSON_AND_ORGANIZATION ( #127, #138 ) ;
#62 = PERSON_AND_ORGANIZATION ( #127, #138 ) ;
#63 = AXIS2_PLACEMENT_3D ( 'NONE', #160, #191, #171 ) ;
#64 = PRODUCT ( '117', '117', '', ( #22 ) ) ;
#65 = EDGE_LOOP ( 'NONE', ( #97 ) ) ;
#66 = AXIS2_PLACEMENT_3D ( 'NONE', #114, #80, #176 ) ;
#67 = EDGE_LOOP ( 'NONE', ( #39 ) ) ;
#68 = ADVANCED_FACE ( 'NONE', ( #32 ), #148, .F. ) ;
#69 = DIRECTION ( 'NONE',  ( -3.491481338843133355E-15, 1.224646799147353207E-16, -1.000000000000000000 ) ) ;
#70 = DIRECTION ( 'NONE',  ( 4.275831445896959482E-31, 1.000000000000000000, 1.224646799147353454E-16 ) ) ;
#71 = AXIS2_PLACEMENT_3D ( 'NONE', #182, #153, #35 ) ;
#72 = CYLINDRICAL_SURFACE ( 'NONE', #81, 0.9999999999999965583 ) ;
#73 = CARTESIAN_POINT ( 'NONE',  ( 5.586370142149013368E-14, 0.9999999999999954481, 16.00000000000000000 ) ) ;
#74 = LOCAL_TIME ( 13, 25, 55.00000000000000000, #57 ) ;
#75 = CALENDAR_DATE ( 2021, 6, 10 ) ;
#76 = APPROVAL_STATUS ( 'not_yet_approved' ) ;
#77 = APPROVAL_ROLE ( '' ) ;
#78 = APPROVAL_DATE_TIME ( #11, #161 ) ;
#79 = DIRECTION ( 'NONE',  ( 0.0000000000000000000, 1.000000000000000000, 0.0000000000000000000 ) ) ;
#80 = DIRECTION ( 'NONE',  ( -3.491481338843133355E-15, 1.224646799147353207E-16, -1.000000000000000000 ) ) ;
#81 = AXIS2_PLACEMENT_3D ( 'NONE', #33, #134, #200 ) ;
#82 = ORIENTED_EDGE ( 'NONE', *, *, #188, .F. ) ;
#83 = LOCAL_TIME ( 13, 25, 55.00000000000000000, #142 ) ;
#84 = FACE_BOUND ( 'NONE', #98, .T. ) ;
#85 = CARTESIAN_POINT ( 'NONE',  ( 0.0000000000000000000, 0.0000000000000000000, 0.0000000000000000000 ) ) ;
#86 = DIRECTION ( 'NONE',  ( 0.0000000000000000000, 1.000000000000000000, 0.0000000000000000000 ) ) ;
#87 = CONICAL_SURFACE ( 'NONE', #113, 0.7000000000000001776, 0.7853981633974452814 ) ;
#88 = ADVANCED_BREP_SHAPE_REPRESENTATION ( '117', ( #140, #202, #163 ), #111 ) ;
#89 = CIRCLE ( 'NONE', #71, 0.7000000000000001776 ) ;
#90 = ADVANCED_FACE ( 'NONE', ( #47, #115 ), #118, .T. ) ;
#91 = PERSON_AND_ORGANIZATION ( #127, #138 ) ;
#92 = PERSON_AND_ORGANIZATION ( #127, #138 ) ;
#93 = PERSON_AND_ORGANIZATION ( #127, #138 ) ;
#94 = APPLICATION_CONTEXT ( 'configuration controlled 3d designs of mechanical parts and assemblies' ) ;
#95 = DIRECTION ( 'NONE',  ( -3.491481338843133355E-15, 1.224646799147353207E-16, -1.000000000000000000 ) ) ;
#96 = CC_DESIGN_DATE_AND_TIME_ASSIGNMENT ( #104, #9, ( #106 ) ) ;
#97 = ORIENTED_EDGE ( 'NONE', *, *, #188, .T. ) ;
#98 = EDGE_LOOP ( 'NONE', ( #177 ) ) ;
#99 = PRODUCT_DEFINITION_FORMATION_WITH_SPECIFIED_SOURCE ( 'ANY', '', #64, .NOT_KNOWN. ) ;
#100 = VERTEX_POINT ( 'NONE', #73 ) ;
#101 = CARTESIAN_POINT ( 'NONE',  ( 0.0000000000000000000, 0.0000000000000000000, 0.0000000000000000000 ) ) ;
#102 =( LENGTH_UNIT ( ) NAMED_UNIT ( * ) SI_UNIT ( .MILLI., .METRE. ) );
#103 = DIRECTION ( 'NONE',  ( -3.491481338843133355E-15, 1.224646799147353207E-16, -1.000000000000000000 ) ) ;
#104 = DATE_AND_TIME ( #26, #50 ) ;
#105 = APPROVAL_PERSON_ORGANIZATION ( #62, #161, #28 ) ;
#106 = SECURITY_CLASSIFICATION ( '', '', #144 ) ;
#107 = PERSON_AND_ORGANIZATION_ROLE ( 'creator' ) ;
#108 = PERSON_AND_ORGANIZATION ( #127, #138 ) ;
#109 = CARTESIAN_POINT ( 'NONE',  ( 5.586370142149013368E-14, 7.498798913309238775E-33, 16.00000000000000000 ) ) ;
#110 = DATE_AND_TIME ( #139, #83 ) ;
#111 =( GEOMETRIC_REPRESENTATION_CONTEXT ( 3 ) GLOBAL_UNCERTAINTY_ASSIGNED_CONTEXT ( ( #44 ) ) GLOBAL_UNIT_ASSIGNED_CONTEXT ( ( #102, #5, #136 ) ) REPRESENTATION_CONTEXT ( 'NONE', 'WORKASPACE' ) );
#112 = APPROVAL_STATUS ( 'not_yet_approved' ) ;
#113 = AXIS2_PLACEMENT_3D ( 'NONE', #195, #95, #79 ) ;
#114 = CARTESIAN_POINT ( 'NONE',  ( 1.316288464743861212E-13, -4.616918432785521081E-15, 37.69999999999999574 ) ) ;
#115 = FACE_OUTER_BOUND ( 'NONE', #67, .T. ) ;
#116 = CLOSED_SHELL ( 'NONE', ( #68, #90, #14, #175 ) ) ;
#117 = PLANE ( 'NONE',  #203 ) ;
#118 = CYLINDRICAL_SURFACE ( 'NONE', #55, 0.9999999999999986677 ) ;
#119 = VERTEX_POINT ( 'NONE', #186 ) ;
#120 = CARTESIAN_POINT ( 'NONE',  ( 1.628104486607834554E-15, -5.710621809774221364E-17, 0.4663076581550026356 ) ) ;
#121 = PRODUCT_RELATED_PRODUCT_CATEGORY ( 'detail', '', ( #64 ) ) ;
#122 = VERTEX_POINT ( 'NONE', #53 ) ;
#123 = LOCAL_TIME ( 13, 25, 55.00000000000000000, #143 ) ;
#124 = PERSON_AND_ORGANIZATION_ROLE ( 'creator' ) ;
#125 = ORIENTED_EDGE ( 'NONE', *, *, #126, .T. ) ;
#126 = EDGE_CURVE ( 'NONE', #119, #119, #167, .T. ) ;
#127 = PERSON ( 'UNSPECIFIED', 'UNSPECIFIED', 'UNSPECIFIED', ('UNSPECIFIED'), ('UNSPECIFIED'), ('UNSPECIFIED') ) ;
#128 = COORDINATED_UNIVERSAL_TIME_OFFSET ( 1, 0, .AHEAD. ) ;
#129 = PERSON_AND_ORGANIZATION ( #127, #138 ) ;
#130 = PRODUCT_DEFINITION ( 'UNKNOWN', '', #99, #181 ) ;
#131 = FACE_OUTER_BOUND ( 'NONE', #133, .T. ) ;
#132 = DIRECTION ( 'NONE',  ( 3.491481338843133355E-15, -1.224646799147353207E-16, 1.000000000000000000 ) ) ;
#133 = EDGE_LOOP ( 'NONE', ( #3 ) ) ;
#134 = DIRECTION ( 'NONE',  ( -3.491481338843133355E-15, 1.224646799147353207E-16, -1.000000000000000000 ) ) ;
#135 = EDGE_CURVE ( 'NONE', #100, #100, #180, .T. ) ;
#136 =( NAMED_UNIT ( * ) SI_UNIT ( $, .STERADIAN. ) SOLID_ANGLE_UNIT ( ) );
#137 = VERTEX_POINT ( 'NONE', #184 ) ;
#138 = ORGANIZATION ( 'UNSPECIFIED', 'UNSPECIFIED', '' ) ;
#139 = CALENDAR_DATE ( 2021, 6, 10 ) ;
#140 = MANIFOLD_SOLID_BREP ( 'Corps-Déplacer/Copier1[1]', #116 ) ;
#141 = APPLICATION_CONTEXT ( 'configuration controlled 3d designs of mechanical parts and assemblies' ) ;
#142 = COORDINATED_UNIVERSAL_TIME_OFFSET ( 1, 0, .AHEAD. ) ;
#143 = COORDINATED_UNIVERSAL_TIME_OFFSET ( 1, 0, .AHEAD. ) ;
#144 = SECURITY_CLASSIFICATION_LEVEL ( 'unclassified' ) ;
#145 = CALENDAR_DATE ( 2021, 6, 10 ) ;
#146 = APPROVAL ( #76, 'UNSPECIFIED' ) ;
#147 = CIRCLE ( 'NONE', #66, 1.000000000000000000 ) ;
#148 = PLANE ( 'NONE',  #29 ) ;
#149 = FACE_OUTER_BOUND ( 'NONE', #194, .T. ) ;
#150 = CC_DESIGN_PERSON_AND_ORGANIZATION_ASSIGNMENT ( #129, #187, ( #106 ) ) ;
#151 = DIRECTION ( 'NONE',  ( -3.491481338843133355E-15, 1.224646799147353207E-16, -1.000000000000000000 ) ) ;
#152 = CC_DESIGN_APPROVAL ( #161, ( #99 ) ) ;
#153 = DIRECTION ( 'NONE',  ( -3.491481338843133355E-15, 1.224646799147353207E-16, -1.000000000000000000 ) ) ;
#154 = FACE_OUTER_BOUND ( 'NONE', #1, .T. ) ;
#155 = CLOSED_SHELL ( 'NONE', ( #8, #199, #38 ) ) ;
#156 = APPROVAL_STATUS ( 'not_yet_approved' ) ;
#157 = AXIS2_PLACEMENT_3D ( 'NONE', #109, #46, #60 ) ;
#158 = APPROVAL_DATE_TIME ( #110, #146 ) ;
#159 = CC_DESIGN_PERSON_AND_ORGANIZATION_ASSIGNMENT ( #36, #20, ( #64 ) ) ;
#160 = CARTESIAN_POINT ( 'NONE',  ( 1.628104486607834554E-15, -5.710621809774221364E-17, 0.4663076581550026356 ) ) ;
#161 = APPROVAL ( #112, 'UNSPECIFIED' ) ;
#162 = EDGE_LOOP ( 'NONE', ( #45 ) ) ;
#163 = AXIS2_PLACEMENT_3D ( 'NONE', #85, #4, #197 ) ;
#164 = ORIENTED_EDGE ( 'NONE', *, *, #169, .F. ) ;
#165 = CARTESIAN_POINT ( 'NONE',  ( 1.326762908760390423E-13, 0.6999999999999955147, 38.00000000000000000 ) ) ;
#166 = DIRECTION ( 'NONE',  ( 4.275831445896958607E-31, 1.000000000000000000, 1.224646799147353207E-16 ) ) ;
#167 = CIRCLE ( 'NONE', #25, 0.9999999999999974465 ) ;
#168 = DIRECTION ( 'NONE',  ( 3.851859888774489222E-31, 1.000000000000000000, 1.084202172485509364E-16 ) ) ;
#169 = EDGE_CURVE ( 'NONE', #21, #21, #89, .T. ) ;
#170 = DATE_AND_TIME ( #75, #193 ) ;
#171 = DIRECTION ( 'NONE',  ( -3.851859888774489222E-31, -1.000000000000000000, -1.084202172485509364E-16 ) ) ;
#172 = SHAPE_DEFINITION_REPRESENTATION ( #43, #88 ) ;
#173 = APPROVAL_DATE_TIME ( #27, #179 ) ;
#174 = PLANE ( 'NONE',  #157 ) ;
#175 = ADVANCED_FACE ( 'NONE', ( #154 ), #117, .F. ) ;
#176 = DIRECTION ( 'NONE',  ( 0.0000000000000000000, 1.000000000000000000, 0.0000000000000000000 ) ) ;
#177 = ORIENTED_EDGE ( 'NONE', *, *, #169, .T. ) ;
#178 = EDGE_LOOP ( 'NONE', ( #82 ) ) ;
#179 = APPROVAL ( #156, 'UNSPECIFIED' ) ;
#180 = CIRCLE ( 'NONE', #54, 0.9999999999999974465 ) ;
#181 = DESIGN_CONTEXT ( 'detailed design', #141, 'design' ) ;
#182 = CARTESIAN_POINT ( 'NONE',  ( 1.326762908760390423E-13, -4.653657836759941941E-15, 38.00000000000000000 ) ) ;
#183 = DIRECTION ( 'NONE',  ( -3.491481338843133355E-15, 1.224646799147353207E-16, -1.000000000000000000 ) ) ;
#184 = CARTESIAN_POINT ( 'NONE',  ( 1.628104486607834949E-15, 0.9999999999999954481, 0.4663076581550027466 ) ) ;
#185 = CC_DESIGN_PERSON_AND_ORGANIZATION_ASSIGNMENT ( #108, #124, ( #99 ) ) ;
#186 = CARTESIAN_POINT ( 'NONE',  ( 5.586370142149013368E-14, 0.9999999999999954481, 16.00000000000000000 ) ) ;
#187 = PERSON_AND_ORGANIZATION_ROLE ( 'classification_officer' ) ;
#188 = EDGE_CURVE ( 'NONE', #137, #137, #37, .T. ) ;
#189 = AXIS2_PLACEMENT_3D ( 'NONE', #120, #151, #168 ) ;
#190 = COORDINATED_UNIVERSAL_TIME_OFFSET ( 1, 0, .AHEAD. ) ;
#191 = DIRECTION ( 'NONE',  ( 3.491481338843133355E-15, -1.224646799147353207E-16, 1.000000000000000000 ) ) ;
#192 = APPROVAL_ROLE ( '' ) ;
#193 = LOCAL_TIME ( 13, 25, 55.00000000000000000, #128 ) ;
#194 = EDGE_LOOP ( 'NONE', ( #16 ) ) ;
#195 = CARTESIAN_POINT ( 'NONE',  ( 1.326762908760390423E-13, -4.653657836759941941E-15, 38.00000000000000000 ) ) ;
#196 = DIRECTION ( 'NONE',  ( -4.275831445896958607E-31, -1.000000000000000000, -1.224646799147353207E-16 ) ) ;
#197 = DIRECTION ( 'NONE',  ( 1.000000000000000000, 0.0000000000000000000, 0.0000000000000000000 ) ) ;
#198 = APPROVAL_PERSON_ORGANIZATION ( #91, #179, #77 ) ;
#199 = ADVANCED_FACE ( 'NONE', ( #52, #6 ), #72, .T. ) ;
#200 = DIRECTION ( 'NONE',  ( 4.275831445896958607E-31, 1.000000000000000000, 1.224646799147353207E-16 ) ) ;
#201 = DIRECTION ( 'NONE',  ( -3.491481338843133355E-15, 1.224646799147353207E-16, -1.000000000000000000 ) ) ;
#202 = MANIFOLD_SOLID_BREP ( 'Corps-Déplacer/Copier1[2]', #155 ) ;
#203 = AXIS2_PLACEMENT_3D ( 'NONE', #7, #69, #166 ) ;
ENDSEC;
END-ISO-10303-21;
