ISO-10303-21;
HEADER;
FILE_DESCRIPTION (( 'STEP AP203' ),
    '1' );
FILE_NAME ('116.step',
    '2021-10-06T11:25:54',
    ( '' ),
    ( '' ),
    'SwSTEP 2.0',
    'SolidWorks 2019',
    '' );
FILE_SCHEMA (( 'CONFIG_CONTROL_DESIGN' ));
ENDSEC;

DATA;
#1 = VERTEX_POINT ( 'NONE', #107 ) ;
#2 = EDGE_LOOP ( 'NONE', ( #162 ) ) ;
#3 = PERSON_AND_ORGANIZATION ( #48, #62 ) ;
#4 = ORIENTED_EDGE ( 'NONE', *, *, #194, .T. ) ;
#5 = FACE_OUTER_BOUND ( 'NONE', #134, .T. ) ;
#6 = DIRECTION ( 'NONE',  ( 3.491481338843133355E-15, -1.224646799147353207E-16, 1.000000000000000000 ) ) ;
#7 = CARTESIAN_POINT ( 'NONE',  ( 1.546699262277442225E-15, -5.425090719285508694E-17, 0.4429922752472523206 ) ) ;
#8 = DIRECTION ( 'NONE',  ( 4.275831445896958607E-31, 1.000000000000000000, 1.224646799147353207E-16 ) ) ;
#9 = DIRECTION ( 'NONE',  ( 0.0000000000000000000, 1.000000000000000000, 0.0000000000000000000 ) ) ;
#10 = AXIS2_PLACEMENT_3D ( 'NONE', #44, #200, #166 ) ;
#11 = ADVANCED_FACE ( 'NONE', ( #147 ), #196, .T. ) ;
#12 = COORDINATED_UNIVERSAL_TIME_OFFSET ( 1, 0, .AHEAD. ) ;
#13 = DATE_TIME_ROLE ( 'classification_date' ) ;
#14 = PERSON_AND_ORGANIZATION ( #48, #62 ) ;
#15 = APPLICATION_PROTOCOL_DEFINITION ( 'international standard', 'config_control_design', 1994, #16 ) ;
#16 = APPLICATION_CONTEXT ( 'configuration controlled 3d designs of mechanical parts and assemblies' ) ;
#17 = CALENDAR_DATE ( 2021, 6, 10 ) ;
#18 = AXIS2_PLACEMENT_3D ( 'NONE', #24, #25, #87 ) ;
#19 = VERTEX_POINT ( 'NONE', #186 ) ;
#20 = ADVANCED_FACE ( 'NONE', ( #182 ), #195, .T. ) ;
#21 = FACE_OUTER_BOUND ( 'NONE', #111, .T. ) ;
#22 = DESIGN_CONTEXT ( 'detailed design', #30, 'design' ) ;
#23 = DIRECTION ( 'NONE',  ( -3.491481338843133355E-15, 1.224646799147353207E-16, -1.000000000000000000 ) ) ;
#24 = CARTESIAN_POINT ( 'NONE',  ( 1.546699262277442225E-15, -5.425090719285508694E-17, 0.4429922752472523206 ) ) ;
#25 = DIRECTION ( 'NONE',  ( 3.491481338843133355E-15, -1.224646799147353207E-16, 1.000000000000000000 ) ) ;
#26 = CIRCLE ( 'NONE', #178, 0.9499999999999999556 ) ;
#27 = ADVANCED_FACE ( 'NONE', ( #21 ), #59, .F. ) ;
#28 = DATE_AND_TIME ( #80, #42 ) ;
#29 = AXIS2_PLACEMENT_3D ( 'NONE', #31, #144, #128 ) ;
#30 = APPLICATION_CONTEXT ( 'configuration controlled 3d designs of mechanical parts and assemblies' ) ;
#31 = CARTESIAN_POINT ( 'NONE',  ( 0.0000000000000000000, 0.0000000000000000000, 0.0000000000000000000 ) ) ;
#32 = CALENDAR_DATE ( 2021, 6, 10 ) ;
#33 = EDGE_LOOP ( 'NONE', ( #88 ) ) ;
#34 =( LENGTH_UNIT ( ) NAMED_UNIT ( * ) SI_UNIT ( .MILLI., .METRE. ) );
#35 = ORIENTED_EDGE ( 'NONE', *, *, #152, .F. ) ;
#36 = PRODUCT ( '116', '116', '', ( #46 ) ) ;
#37 = COORDINATED_UNIVERSAL_TIME_OFFSET ( 1, 0, .AHEAD. ) ;
#38 = AXIS2_PLACEMENT_3D ( 'NONE', #180, #6, #150 ) ;
#39 = VERTEX_POINT ( 'NONE', #161 ) ;
#40 = DIRECTION ( 'NONE',  ( -3.491481338843133355E-15, 1.224646799147353207E-16, -1.000000000000000000 ) ) ;
#41 = CARTESIAN_POINT ( 'NONE',  ( 1.326762908760390423E-13, -4.653657836759941941E-15, 38.00000000000000000 ) ) ;
#42 = LOCAL_TIME ( 13, 25, 54.00000000000000000, #123 ) ;
#43 = FACE_OUTER_BOUND ( 'NONE', #2, .T. ) ;
#44 = CARTESIAN_POINT ( 'NONE',  ( 1.326762908760390423E-13, -4.653657836759941941E-15, 38.00000000000000000 ) ) ;
#45 = PRODUCT_DEFINITION ( 'UNKNOWN', '', #174, #22 ) ;
#46 = MECHANICAL_CONTEXT ( 'NONE', #16, 'mechanical' ) ;
#47 = APPROVAL_PERSON_ORGANIZATION ( #76, #97, #51 ) ;
#48 = PERSON ( 'UNSPECIFIED', 'UNSPECIFIED', 'UNSPECIFIED', ('UNSPECIFIED'), ('UNSPECIFIED'), ('UNSPECIFIED') ) ;
#49 = AXIS2_PLACEMENT_3D ( 'NONE', #149, #73, #8 ) ;
#50 = PERSON_AND_ORGANIZATION ( #48, #62 ) ;
#51 = APPROVAL_ROLE ( '' ) ;
#52 = PRODUCT_DEFINITION_SHAPE ( 'NONE', 'NONE',  #45 ) ;
#53 =( NAMED_UNIT ( * ) SI_UNIT ( $, .STERADIAN. ) SOLID_ANGLE_UNIT ( ) );
#54 = APPROVAL ( #158, 'UNSPECIFIED' ) ;
#55 = ORIENTED_EDGE ( 'NONE', *, *, #156, .T. ) ;
#56 = APPROVAL_ROLE ( '' ) ;
#57 = CARTESIAN_POINT ( 'NONE',  ( 1.326762908760390423E-13, 5.624099184981896238E-33, 38.00000000000000000 ) ) ;
#58 = CARTESIAN_POINT ( 'NONE',  ( 0.0000000000000000000, 0.0000000000000000000, 0.0000000000000000000 ) ) ;
#59 = PLANE ( 'NONE',  #108 ) ;
#60 = CIRCLE ( 'NONE', #77, 0.9499999999999972911 ) ;
#61 = CARTESIAN_POINT ( 'NONE',  ( 1.319779946082704535E-13, -4.629164900776995227E-15, 37.79999999999999716 ) ) ;
#62 = ORGANIZATION ( 'UNSPECIFIED', 'UNSPECIFIED', '' ) ;
#63 = PERSON_AND_ORGANIZATION_ROLE ( 'creator' ) ;
#64 = PERSON_AND_ORGANIZATION_ROLE ( 'design_owner' ) ;
#65 = AXIS2_PLACEMENT_3D ( 'NONE', #202, #86, #84 ) ;
#66 = APPROVAL_PERSON_ORGANIZATION ( #142, #165, #56 ) ;
#67 = PERSON_AND_ORGANIZATION_ROLE ( 'design_supplier' ) ;
#68 = ORIENTED_EDGE ( 'NONE', *, *, #132, .F. ) ;
#69 = FACE_BOUND ( 'NONE', #33, .T. ) ;
#70 = DIRECTION ( 'NONE',  ( -3.491481338843133355E-15, 1.224646799147353207E-16, -1.000000000000000000 ) ) ;
#71 = EDGE_LOOP ( 'NONE', ( #68 ) ) ;
#72 = CIRCLE ( 'NONE', #185, 0.9499999999999972911 ) ;
#73 = DIRECTION ( 'NONE',  ( -3.491481338843133355E-15, 1.224646799147353207E-16, -1.000000000000000000 ) ) ;
#74 = DATE_TIME_ROLE ( 'creation_date' ) ;
#75 = APPROVAL_DATE_TIME ( #28, #54 ) ;
#76 = PERSON_AND_ORGANIZATION ( #48, #62 ) ;
#77 = AXIS2_PLACEMENT_3D ( 'NONE', #139, #99, #102 ) ;
#78 = CALENDAR_DATE ( 2021, 6, 10 ) ;
#79 = CC_DESIGN_PERSON_AND_ORGANIZATION_ASSIGNMENT ( #50, #109, ( #168 ) ) ;
#80 = CALENDAR_DATE ( 2021, 6, 10 ) ;
#81 = EDGE_LOOP ( 'NONE', ( #4 ) ) ;
#82 = APPROVAL_PERSON_ORGANIZATION ( #155, #54, #172 ) ;
#83 = PRODUCT_RELATED_PRODUCT_CATEGORY ( 'detail', '', ( #36 ) ) ;
#84 = DIRECTION ( 'NONE',  ( -4.275831445896958607E-31, -1.000000000000000000, -1.224646799147353207E-16 ) ) ;
#85 = FACE_OUTER_BOUND ( 'NONE', #160, .T. ) ;
#86 = DIRECTION ( 'NONE',  ( 3.491481338843133355E-15, -1.224646799147353207E-16, 1.000000000000000000 ) ) ;
#87 = DIRECTION ( 'NONE',  ( -4.054589356604726834E-31, -1.000000000000000000, -1.141265444721589181E-16 ) ) ;
#88 = ORIENTED_EDGE ( 'NONE', *, *, #152, .T. ) ;
#89 = LOCAL_TIME ( 13, 25, 54.00000000000000000, #90 ) ;
#90 = COORDINATED_UNIVERSAL_TIME_OFFSET ( 1, 0, .AHEAD. ) ;
#91 = APPROVAL_STATUS ( 'not_yet_approved' ) ;
#92 = APPLICATION_PROTOCOL_DEFINITION ( 'international standard', 'config_control_design', 1994, #30 ) ;
#93 = CC_DESIGN_PERSON_AND_ORGANIZATION_ASSIGNMENT ( #14, #127, ( #45 ) ) ;
#94 = CIRCLE ( 'NONE', #203, 0.9499999999999954037 ) ;
#95 =( NAMED_UNIT ( * ) PLANE_ANGLE_UNIT ( ) SI_UNIT ( $, .RADIAN. ) );
#96 = ADVANCED_BREP_SHAPE_REPRESENTATION ( '116', ( #126, #130, #29 ), #176 ) ;
#97 = APPROVAL ( #91, 'UNSPECIFIED' ) ;
#98 = LOCAL_TIME ( 13, 25, 54.00000000000000000, #12 ) ;
#99 = DIRECTION ( 'NONE',  ( -3.491481338843133355E-15, 1.224646799147353207E-16, -1.000000000000000000 ) ) ;
#100 = ORIENTED_EDGE ( 'NONE', *, *, #145, .T. ) ;
#101 = UNCERTAINTY_MEASURE_WITH_UNIT (LENGTH_MEASURE( 1.000000000000000082E-05 ), #34, 'distance_accuracy_value', 'NONE');
#102 = DIRECTION ( 'NONE',  ( 0.0000000000000000000, 1.000000000000000000, 0.0000000000000000000 ) ) ;
#103 = CYLINDRICAL_SURFACE ( 'NONE', #164, 0.9499999999999986233 ) ;
#104 = FACE_OUTER_BOUND ( 'NONE', #175, .T. ) ;
#105 = CONICAL_SURFACE ( 'NONE', #151, 0.7500000000000000000, 0.7853981633974512766 ) ;
#106 = CC_DESIGN_DATE_AND_TIME_ASSIGNMENT ( #157, #13, ( #168 ) ) ;
#107 = CARTESIAN_POINT ( 'NONE',  ( 1.546699262277442620E-15, 0.9499999999999952927, 0.4429922752472524317 ) ) ;
#108 = AXIS2_PLACEMENT_3D ( 'NONE', #57, #136, #137 ) ;
#109 = PERSON_AND_ORGANIZATION_ROLE ( 'classification_officer' ) ;
#110 = VERTEX_POINT ( 'NONE', #190 ) ;
#111 = EDGE_LOOP ( 'NONE', ( #35 ) ) ;
#112 = CC_DESIGN_APPROVAL ( #97, ( #174 ) ) ;
#113 = APPROVAL_DATE_TIME ( #131, #165 ) ;
#114 = ORIENTED_EDGE ( 'NONE', *, *, #156, .F. ) ;
#115 = VERTEX_POINT ( 'NONE', #177 ) ;
#116 = CC_DESIGN_APPROVAL ( #165, ( #168 ) ) ;
#117 = SHAPE_DEFINITION_REPRESENTATION ( #52, #96 ) ;
#118 = DIRECTION ( 'NONE',  ( -3.491481338843133355E-15, 1.224646799147353207E-16, -1.000000000000000000 ) ) ;
#119 = ADVANCED_FACE ( 'NONE', ( #5, #69 ), #105, .T. ) ;
#120 = DIRECTION ( 'NONE',  ( 0.0000000000000000000, 1.000000000000000000, 0.0000000000000000000 ) ) ;
#121 = FACE_OUTER_BOUND ( 'NONE', #199, .T. ) ;
#122 = DIRECTION ( 'NONE',  ( 0.0000000000000000000, 1.000000000000000000, 0.0000000000000000000 ) ) ;
#123 = COORDINATED_UNIVERSAL_TIME_OFFSET ( 1, 0, .AHEAD. ) ;
#124 = ADVANCED_FACE ( 'NONE', ( #121, #43 ), #135, .T. ) ;
#125 = ADVANCED_FACE ( 'NONE', ( #85, #197 ), #103, .T. ) ;
#126 = MANIFOLD_SOLID_BREP ( 'Corps-Déplacer/Copier1[1]', #148 ) ;
#127 = PERSON_AND_ORGANIZATION_ROLE ( 'creator' ) ;
#128 = DIRECTION ( 'NONE',  ( 1.000000000000000000, 0.0000000000000000000, 0.0000000000000000000 ) ) ;
#129 = SECURITY_CLASSIFICATION_LEVEL ( 'unclassified' ) ;
#130 = MANIFOLD_SOLID_BREP ( 'Corps-Déplacer/Copier1[2]', #146 ) ;
#131 = DATE_AND_TIME ( #17, #154 ) ;
#132 = EDGE_CURVE ( 'NONE', #115, #115, #72, .T. ) ;
#133 = CC_DESIGN_DATE_AND_TIME_ASSIGNMENT ( #153, #74, ( #45 ) ) ;
#134 = EDGE_LOOP ( 'NONE', ( #114 ) ) ;
#135 = CYLINDRICAL_SURFACE ( 'NONE', #49, 0.9499999999999964029 ) ;
#136 = DIRECTION ( 'NONE',  ( -3.491481338843133355E-15, 1.224646799147353207E-16, -1.000000000000000000 ) ) ;
#137 = DIRECTION ( 'NONE',  ( 4.275831445896958607E-31, 1.000000000000000000, 1.224646799147353207E-16 ) ) ;
#138 = CARTESIAN_POINT ( 'NONE',  ( 5.586370142149013368E-14, -1.959434878635765131E-15, 16.00000000000000000 ) ) ;
#139 = CARTESIAN_POINT ( 'NONE',  ( 5.586370142149013368E-14, -1.959434878635765131E-15, 16.00000000000000000 ) ) ;
#140 = PERSON_AND_ORGANIZATION ( #48, #62 ) ;
#141 = PERSON_AND_ORGANIZATION ( #48, #62 ) ;
#142 = PERSON_AND_ORGANIZATION ( #48, #62 ) ;
#143 = APPROVAL_DATE_TIME ( #187, #97 ) ;
#144 = DIRECTION ( 'NONE',  ( 0.0000000000000000000, 0.0000000000000000000, 1.000000000000000000 ) ) ;
#145 = EDGE_CURVE ( 'NONE', #39, #39, #60, .T. ) ;
#146 = CLOSED_SHELL ( 'NONE', ( #20, #124, #11 ) ) ;
#147 = FACE_OUTER_BOUND ( 'NONE', #71, .T. ) ;
#148 = CLOSED_SHELL ( 'NONE', ( #198, #125, #119, #27 ) ) ;
#149 = CARTESIAN_POINT ( 'NONE',  ( 0.0000000000000000000, 0.0000000000000000000, 0.0000000000000000000 ) ) ;
#150 = DIRECTION ( 'NONE',  ( -4.275831445896958607E-31, -1.000000000000000000, -1.224646799147353207E-16 ) ) ;
#151 = AXIS2_PLACEMENT_3D ( 'NONE', #41, #70, #9 ) ;
#152 = EDGE_CURVE ( 'NONE', #19, #19, #188, .T. ) ;
#153 = DATE_AND_TIME ( #189, #89 ) ;
#154 = LOCAL_TIME ( 13, 25, 54.00000000000000000, #37 ) ;
#155 = PERSON_AND_ORGANIZATION ( #48, #62 ) ;
#156 = EDGE_CURVE ( 'NONE', #110, #110, #26, .T. ) ;
#157 = DATE_AND_TIME ( #32, #183 ) ;
#158 = APPROVAL_STATUS ( 'not_yet_approved' ) ;
#159 = APPROVAL_STATUS ( 'not_yet_approved' ) ;
#160 = EDGE_LOOP ( 'NONE', ( #192 ) ) ;
#161 = CARTESIAN_POINT ( 'NONE',  ( 5.586370142149013368E-14, 0.9499999999999952927, 16.00000000000000000 ) ) ;
#162 = ORIENTED_EDGE ( 'NONE', *, *, #132, .T. ) ;
#163 = DIRECTION ( 'NONE',  ( -3.491481338843133355E-15, 1.224646799147353207E-16, -1.000000000000000000 ) ) ;
#164 = AXIS2_PLACEMENT_3D ( 'NONE', #58, #118, #179 ) ;
#165 = APPROVAL ( #159, 'UNSPECIFIED' ) ;
#166 = DIRECTION ( 'NONE',  ( 0.0000000000000000000, 1.000000000000000000, 0.0000000000000000000 ) ) ;
#167 = PLANE ( 'NONE',  #65 ) ;
#168 = SECURITY_CLASSIFICATION ( '', '', #129 ) ;
#169 = CC_DESIGN_PERSON_AND_ORGANIZATION_ASSIGNMENT ( #141, #67, ( #174 ) ) ;
#170 = COORDINATED_UNIVERSAL_TIME_OFFSET ( 1, 0, .AHEAD. ) ;
#171 = EDGE_LOOP ( 'NONE', ( #55 ) ) ;
#172 = APPROVAL_ROLE ( '' ) ;
#173 = CC_DESIGN_PERSON_AND_ORGANIZATION_ASSIGNMENT ( #3, #64, ( #36 ) ) ;
#174 = PRODUCT_DEFINITION_FORMATION_WITH_SPECIFIED_SOURCE ( 'ANY', '', #36, .NOT_KNOWN. ) ;
#175 = EDGE_LOOP ( 'NONE', ( #100 ) ) ;
#176 =( GEOMETRIC_REPRESENTATION_CONTEXT ( 3 ) GLOBAL_UNCERTAINTY_ASSIGNED_CONTEXT ( ( #101 ) ) GLOBAL_UNIT_ASSIGNED_CONTEXT ( ( #34, #95, #53 ) ) REPRESENTATION_CONTEXT ( 'NONE', 'WORKASPACE' ) );
#177 = CARTESIAN_POINT ( 'NONE',  ( 5.586370142149013368E-14, 0.9499999999999952927, 16.00000000000000000 ) ) ;
#178 = AXIS2_PLACEMENT_3D ( 'NONE', #61, #163, #122 ) ;
#179 = DIRECTION ( 'NONE',  ( 4.275831445896958607E-31, 1.000000000000000000, 1.224646799147353207E-16 ) ) ;
#180 = CARTESIAN_POINT ( 'NONE',  ( 5.586370142149013368E-14, 7.123858967643773004E-33, 16.00000000000000000 ) ) ;
#181 = CC_DESIGN_PERSON_AND_ORGANIZATION_ASSIGNMENT ( #140, #63, ( #174 ) ) ;
#182 = FACE_OUTER_BOUND ( 'NONE', #81, .T. ) ;
#183 = LOCAL_TIME ( 13, 25, 54.00000000000000000, #170 ) ;
#184 = DIRECTION ( 'NONE',  ( 4.054589356604726834E-31, 1.000000000000000000, 1.141265444721589181E-16 ) ) ;
#185 = AXIS2_PLACEMENT_3D ( 'NONE', #138, #40, #120 ) ;
#186 = CARTESIAN_POINT ( 'NONE',  ( 1.326762908760390423E-13, 0.7499999999999953371, 38.00000000000000000 ) ) ;
#187 = DATE_AND_TIME ( #78, #98 ) ;
#188 = CIRCLE ( 'NONE', #10, 0.7500000000000000000 ) ;
#189 = CALENDAR_DATE ( 2021, 6, 10 ) ;
#190 = CARTESIAN_POINT ( 'NONE',  ( 1.319779946082704535E-13, 0.9499999999999952927, 37.79999999999999716 ) ) ;
#191 = CC_DESIGN_SECURITY_CLASSIFICATION ( #168, ( #174 ) ) ;
#192 = ORIENTED_EDGE ( 'NONE', *, *, #145, .F. ) ;
#193 = ORIENTED_EDGE ( 'NONE', *, *, #194, .F. ) ;
#194 = EDGE_CURVE ( 'NONE', #1, #1, #94, .T. ) ;
#195 = CONICAL_SURFACE ( 'NONE', #18, 0.9499999999999954037, 1.134464013796309345 ) ;
#196 = PLANE ( 'NONE',  #38 ) ;
#197 = FACE_OUTER_BOUND ( 'NONE', #171, .T. ) ;
#198 = ADVANCED_FACE ( 'NONE', ( #104 ), #167, .F. ) ;
#199 = EDGE_LOOP ( 'NONE', ( #193 ) ) ;
#200 = DIRECTION ( 'NONE',  ( -3.491481338843133355E-15, 1.224646799147353207E-16, -1.000000000000000000 ) ) ;
#201 = CC_DESIGN_APPROVAL ( #54, ( #45 ) ) ;
#202 = CARTESIAN_POINT ( 'NONE',  ( 5.586370142149013368E-14, 7.123858967643773004E-33, 16.00000000000000000 ) ) ;
#203 = AXIS2_PLACEMENT_3D ( 'NONE', #7, #23, #184 ) ;
ENDSEC;
END-ISO-10303-21;
