ISO-10303-21;
HEADER;
FILE_DESCRIPTION (( 'STEP AP203' ),
    '1' );
FILE_NAME ('115.step',
    '2021-10-06T11:25:52',
    ( '' ),
    ( '' ),
    'SwSTEP 2.0',
    'SolidWorks 2019',
    '' );
FILE_SCHEMA (( 'CONFIG_CONTROL_DESIGN' ));
ENDSEC;

DATA;
#1 = ADVANCED_FACE ( 'NONE', ( #10 ), #202, .T. ) ;
#2 = CIRCLE ( 'NONE', #42, 0.9249999999999953815 ) ;
#3 = EDGE_LOOP ( 'NONE', ( #83 ) ) ;
#4 = PERSON_AND_ORGANIZATION_ROLE ( 'classification_officer' ) ;
#5 = AXIS2_PLACEMENT_3D ( 'NONE', #115, #101, #40 ) ;
#6 = DIRECTION ( 'NONE',  ( -3.491481338843133355E-15, 1.224646799147353207E-16, -1.000000000000000000 ) ) ;
#7 = COORDINATED_UNIVERSAL_TIME_OFFSET ( 1, 0, .AHEAD. ) ;
#8 = CARTESIAN_POINT ( 'NONE',  ( 5.586370142149013368E-14, 0.9249999999999953815, 16.00000000000000000 ) ) ;
#9 = PERSON_AND_ORGANIZATION ( #81, #73 ) ;
#10 = FACE_OUTER_BOUND ( 'NONE', #3, .T. ) ;
#11 = CARTESIAN_POINT ( 'NONE',  ( 0.0000000000000000000, 0.0000000000000000000, 0.0000000000000000000 ) ) ;
#12 = DIRECTION ( 'NONE',  ( 4.164172852729179455E-31, 1.000000000000000000, 1.172110456741091744E-16 ) ) ;
#13 = FACE_OUTER_BOUND ( 'NONE', #16, .T. ) ;
#14 = ADVANCED_FACE ( 'NONE', ( #117 ), #45, .T. ) ;
#15 = CARTESIAN_POINT ( 'NONE',  ( 1.505996650112246849E-15, 0.9249999999999953815, 0.4313345837933773019 ) ) ;
#16 = EDGE_LOOP ( 'NONE', ( #173 ) ) ;
#17 = EDGE_LOOP ( 'NONE', ( #152 ) ) ;
#18 = CARTESIAN_POINT ( 'NONE',  ( 1.326762908760390423E-13, -4.653657836759941941E-15, 38.00000000000000000 ) ) ;
#19 = PERSON_AND_ORGANIZATION ( #81, #73 ) ;
#20 = FACE_OUTER_BOUND ( 'NONE', #97, .T. ) ;
#21 = FACE_OUTER_BOUND ( 'NONE', #62, .T. ) ;
#22 = APPROVAL_ROLE ( '' ) ;
#23 = DIRECTION ( 'NONE',  ( 0.0000000000000000000, 1.000000000000000000, 0.0000000000000000000 ) ) ;
#24 = DATE_TIME_ROLE ( 'creation_date' ) ;
#25 = AXIS2_PLACEMENT_3D ( 'NONE', #108, #70, #174 ) ;
#26 = CARTESIAN_POINT ( 'NONE',  ( 0.0000000000000000000, 0.0000000000000000000, 0.0000000000000000000 ) ) ;
#27 = AXIS2_PLACEMENT_3D ( 'NONE', #18, #86, #23 ) ;
#28 = AXIS2_PLACEMENT_3D ( 'NONE', #11, #164, #142 ) ;
#29 = EDGE_CURVE ( 'NONE', #68, #68, #92, .T. ) ;
#30 = CC_DESIGN_PERSON_AND_ORGANIZATION_ASSIGNMENT ( #9, #155, ( #203 ) ) ;
#31 = FACE_BOUND ( 'NONE', #64, .T. ) ;
#32 = APPLICATION_PROTOCOL_DEFINITION ( 'international standard', 'config_control_design', 1994, #131 ) ;
#33 = CC_DESIGN_PERSON_AND_ORGANIZATION_ASSIGNMENT ( #124, #162, ( #165 ) ) ;
#34 = CARTESIAN_POINT ( 'NONE',  ( 1.319779946082704535E-13, -4.629164900776995227E-15, 37.79999999999999716 ) ) ;
#35 = APPROVAL_DATE_TIME ( #116, #171 ) ;
#36 = CARTESIAN_POINT ( 'NONE',  ( 5.586370142149013368E-14, 6.936388994811042172E-33, 16.00000000000000000 ) ) ;
#37 = PERSON_AND_ORGANIZATION ( #81, #73 ) ;
#38 = DIRECTION ( 'NONE',  ( 0.0000000000000000000, 1.000000000000000000, 0.0000000000000000000 ) ) ;
#39 = DATE_AND_TIME ( #183, #172 ) ;
#40 = DIRECTION ( 'NONE',  ( -4.275831445896958607E-31, -1.000000000000000000, -1.224646799147353207E-16 ) ) ;
#41 = DATE_AND_TIME ( #109, #138 ) ;
#42 = AXIS2_PLACEMENT_3D ( 'NONE', #139, #147, #12 ) ;
#43 = ORIENTED_EDGE ( 'NONE', *, *, #67, .F. ) ;
#44 = ADVANCED_FACE ( 'NONE', ( #50 ), #113, .F. ) ;
#45 = CONICAL_SURFACE ( 'NONE', #79, 0.9249999999999953815, 1.134464013796309123 ) ;
#46 = EDGE_LOOP ( 'NONE', ( #136 ) ) ;
#47 = EDGE_LOOP ( 'NONE', ( #151 ) ) ;
#48 = COORDINATED_UNIVERSAL_TIME_OFFSET ( 1, 0, .AHEAD. ) ;
#49 = DATE_AND_TIME ( #197, #192 ) ;
#50 = FACE_OUTER_BOUND ( 'NONE', #46, .T. ) ;
#51 = DATE_AND_TIME ( #126, #52 ) ;
#52 = LOCAL_TIME ( 13, 25, 52.00000000000000000, #89 ) ;
#53 = MANIFOLD_SOLID_BREP ( 'Corps-Déplacer/Copier1[2]', #145 ) ;
#54 = CYLINDRICAL_SURFACE ( 'NONE', #25, 0.9249999999999963807 ) ;
#55 = COORDINATED_UNIVERSAL_TIME_OFFSET ( 1, 0, .AHEAD. ) ;
#56 = DIRECTION ( 'NONE',  ( 3.491481338843133355E-15, -1.224646799147353207E-16, 1.000000000000000000 ) ) ;
#57 = APPROVAL_DATE_TIME ( #41, #193 ) ;
#58 = LOCAL_TIME ( 13, 25, 52.00000000000000000, #48 ) ;
#59 = EDGE_CURVE ( 'NONE', #196, #196, #104, .T. ) ;
#60 = PRODUCT ( '115', '115', '', ( #194 ) ) ;
#61 = AXIS2_PLACEMENT_3D ( 'NONE', #36, #56, #94 ) ;
#62 = EDGE_LOOP ( 'NONE', ( #43 ) ) ;
#63 = AXIS2_PLACEMENT_3D ( 'NONE', #127, #6, #76 ) ;
#64 = EDGE_LOOP ( 'NONE', ( #134 ) ) ;
#65 = ORIENTED_EDGE ( 'NONE', *, *, #181, .F. ) ;
#66 = DATE_TIME_ROLE ( 'classification_date' ) ;
#67 = EDGE_CURVE ( 'NONE', #158, #158, #112, .T. ) ;
#68 = VERTEX_POINT ( 'NONE', #123 ) ;
#69 = APPROVAL_ROLE ( '' ) ;
#70 = DIRECTION ( 'NONE',  ( -3.491481338843133355E-15, 1.224646799147353207E-16, -1.000000000000000000 ) ) ;
#71 = CYLINDRICAL_SURFACE ( 'NONE', #96, 0.9249999999999987121 ) ;
#72 = APPROVAL_STATUS ( 'not_yet_approved' ) ;
#73 = ORGANIZATION ( 'UNSPECIFIED', 'UNSPECIFIED', '' ) ;
#74 = ADVANCED_FACE ( 'NONE', ( #21, #20 ), #71, .T. ) ;
#75 = CARTESIAN_POINT ( 'NONE',  ( 1.326762908760390423E-13, 0.7249999999999954259, 38.00000000000000000 ) ) ;
#76 = DIRECTION ( 'NONE',  ( 4.275831445896958607E-31, 1.000000000000000000, 1.224646799147353207E-16 ) ) ;
#77 = ADVANCED_FACE ( 'NONE', ( #13 ), #143, .F. ) ;
#78 = AXIS2_PLACEMENT_3D ( 'NONE', #128, #179, #149 ) ;
#79 = AXIS2_PLACEMENT_3D ( 'NONE', #184, #110, #161 ) ;
#80 = ORIENTED_EDGE ( 'NONE', *, *, #59, .T. ) ;
#81 = PERSON ( 'UNSPECIFIED', 'UNSPECIFIED', 'UNSPECIFIED', ('UNSPECIFIED'), ('UNSPECIFIED'), ('UNSPECIFIED') ) ;
#82 = SECURITY_CLASSIFICATION ( '', '', #167 ) ;
#83 = ORIENTED_EDGE ( 'NONE', *, *, #59, .F. ) ;
#84 = PERSON_AND_ORGANIZATION ( #81, #73 ) ;
#85 = CC_DESIGN_DATE_AND_TIME_ASSIGNMENT ( #51, #24, ( #203 ) ) ;
#86 = DIRECTION ( 'NONE',  ( -3.491481338843133355E-15, 1.224646799147353207E-16, -1.000000000000000000 ) ) ;
#87 = PERSON_AND_ORGANIZATION_ROLE ( 'creator' ) ;
#88 = CARTESIAN_POINT ( 'NONE',  ( 5.586370142149013368E-14, 0.9249999999999953815, 16.00000000000000000 ) ) ;
#89 = COORDINATED_UNIVERSAL_TIME_OFFSET ( 1, 0, .AHEAD. ) ;
#90 = DIRECTION ( 'NONE',  ( -3.491481338843133355E-15, 1.224646799147353207E-16, -1.000000000000000000 ) ) ;
#91 = CARTESIAN_POINT ( 'NONE',  ( 5.586370142149013368E-14, -1.959434878635765131E-15, 16.00000000000000000 ) ) ;
#92 = CIRCLE ( 'NONE', #187, 0.9250000000000000444 ) ;
#93 = APPROVAL_DATE_TIME ( #39, #106 ) ;
#94 = DIRECTION ( 'NONE',  ( -4.275831445896958607E-31, -1.000000000000000000, -1.224646799147353207E-16 ) ) ;
#95 = SHAPE_DEFINITION_REPRESENTATION ( #169, #160 ) ;
#96 = AXIS2_PLACEMENT_3D ( 'NONE', #26, #90, #154 ) ;
#97 = EDGE_LOOP ( 'NONE', ( #121 ) ) ;
#98 = DIRECTION ( 'NONE',  ( 0.0000000000000000000, 1.000000000000000000, 0.0000000000000000000 ) ) ;
#99 =( LENGTH_UNIT ( ) NAMED_UNIT ( * ) SI_UNIT ( .MILLI., .METRE. ) );
#100 = CIRCLE ( 'NONE', #153, 0.7250000000000000888 ) ;
#101 = DIRECTION ( 'NONE',  ( 3.491481338843133355E-15, -1.224646799147353207E-16, 1.000000000000000000 ) ) ;
#102 = PERSON_AND_ORGANIZATION ( #81, #73 ) ;
#103 = CARTESIAN_POINT ( 'NONE',  ( 1.326762908760390423E-13, -4.653657836759941941E-15, 38.00000000000000000 ) ) ;
#104 = CIRCLE ( 'NONE', #190, 0.9249999999999973799 ) ;
#105 = CC_DESIGN_PERSON_AND_ORGANIZATION_ASSIGNMENT ( #159, #137, ( #60 ) ) ;
#106 = APPROVAL ( #122, 'UNSPECIFIED' ) ;
#107 = EDGE_CURVE ( 'NONE', #141, #141, #100, .T. ) ;
#108 = CARTESIAN_POINT ( 'NONE',  ( 0.0000000000000000000, 0.0000000000000000000, 0.0000000000000000000 ) ) ;
#109 = CALENDAR_DATE ( 2021, 6, 10 ) ;
#110 = DIRECTION ( 'NONE',  ( 3.491481338843133355E-15, -1.224646799147353207E-16, 1.000000000000000000 ) ) ;
#111 = PERSON_AND_ORGANIZATION ( #81, #73 ) ;
#112 = CIRCLE ( 'NONE', #78, 0.9249999999999973799 ) ;
#113 = PLANE ( 'NONE',  #5 ) ;
#114 = APPROVAL_STATUS ( 'not_yet_approved' ) ;
#115 = CARTESIAN_POINT ( 'NONE',  ( 5.586370142149013368E-14, 6.936388994811042172E-33, 16.00000000000000000 ) ) ;
#116 = DATE_AND_TIME ( #180, #58 ) ;
#117 = FACE_OUTER_BOUND ( 'NONE', #47, .T. ) ;
#118 = CLOSED_SHELL ( 'NONE', ( #44, #74, #176, #77 ) ) ;
#119 = APPROVAL_PERSON_ORGANIZATION ( #111, #106, #201 ) ;
#120 = EDGE_LOOP ( 'NONE', ( #80 ) ) ;
#121 = ORIENTED_EDGE ( 'NONE', *, *, #29, .T. ) ;
#122 = APPROVAL_STATUS ( 'not_yet_approved' ) ;
#123 = CARTESIAN_POINT ( 'NONE',  ( 1.319779946082704535E-13, 0.9249999999999953815, 37.79999999999999716 ) ) ;
#124 = PERSON_AND_ORGANIZATION ( #81, #73 ) ;
#125 = DIRECTION ( 'NONE',  ( -3.491481338843133355E-15, 1.224646799147353207E-16, -1.000000000000000000 ) ) ;
#126 = CALENDAR_DATE ( 2021, 6, 10 ) ;
#127 = CARTESIAN_POINT ( 'NONE',  ( 1.326762908760390423E-13, 5.436629212149164721E-33, 38.00000000000000000 ) ) ;
#128 = CARTESIAN_POINT ( 'NONE',  ( 5.586370142149013368E-14, -1.959434878635765131E-15, 16.00000000000000000 ) ) ;
#129 = DIRECTION ( 'NONE',  ( 0.0000000000000000000, 1.000000000000000000, 0.0000000000000000000 ) ) ;
#130 =( GEOMETRIC_REPRESENTATION_CONTEXT ( 3 ) GLOBAL_UNCERTAINTY_ASSIGNED_CONTEXT ( ( #132 ) ) GLOBAL_UNIT_ASSIGNED_CONTEXT ( ( #99, #185, #140 ) ) REPRESENTATION_CONTEXT ( 'NONE', 'WORKASPACE' ) );
#131 = APPLICATION_CONTEXT ( 'configuration controlled 3d designs of mechanical parts and assemblies' ) ;
#132 = UNCERTAINTY_MEASURE_WITH_UNIT (LENGTH_MEASURE( 1.000000000000000082E-05 ), #99, 'distance_accuracy_value', 'NONE');
#133 = ADVANCED_FACE ( 'NONE', ( #166, #200 ), #54, .T. ) ;
#134 = ORIENTED_EDGE ( 'NONE', *, *, #107, .T. ) ;
#135 = APPROVAL_PERSON_ORGANIZATION ( #37, #193, #22 ) ;
#136 = ORIENTED_EDGE ( 'NONE', *, *, #67, .T. ) ;
#137 = PERSON_AND_ORGANIZATION_ROLE ( 'design_owner' ) ;
#138 = LOCAL_TIME ( 13, 25, 52.00000000000000000, #7 ) ;
#139 = CARTESIAN_POINT ( 'NONE',  ( 1.505996650112246455E-15, -5.282325174041151742E-17, 0.4313345837933771909 ) ) ;
#140 =( NAMED_UNIT ( * ) SI_UNIT ( $, .STERADIAN. ) SOLID_ANGLE_UNIT ( ) );
#141 = VERTEX_POINT ( 'NONE', #75 ) ;
#142 = DIRECTION ( 'NONE',  ( 1.000000000000000000, 0.0000000000000000000, 0.0000000000000000000 ) ) ;
#143 = PLANE ( 'NONE',  #63 ) ;
#144 = COORDINATED_UNIVERSAL_TIME_OFFSET ( 1, 0, .AHEAD. ) ;
#145 = CLOSED_SHELL ( 'NONE', ( #14, #133, #1 ) ) ;
#146 = CONICAL_SURFACE ( 'NONE', #27, 0.7250000000000000888, 0.7853981633974512766 ) ;
#147 = DIRECTION ( 'NONE',  ( -3.491481338843133355E-15, 1.224646799147353207E-16, -1.000000000000000000 ) ) ;
#148 = CC_DESIGN_PERSON_AND_ORGANIZATION_ASSIGNMENT ( #84, #4, ( #82 ) ) ;
#149 = DIRECTION ( 'NONE',  ( 0.0000000000000000000, 1.000000000000000000, 0.0000000000000000000 ) ) ;
#150 = VERTEX_POINT ( 'NONE', #15 ) ;
#151 = ORIENTED_EDGE ( 'NONE', *, *, #181, .T. ) ;
#152 = ORIENTED_EDGE ( 'NONE', *, *, #29, .F. ) ;
#153 = AXIS2_PLACEMENT_3D ( 'NONE', #103, #177, #98 ) ;
#154 = DIRECTION ( 'NONE',  ( 4.275831445896958607E-31, 1.000000000000000000, 1.224646799147353454E-16 ) ) ;
#155 = PERSON_AND_ORGANIZATION_ROLE ( 'creator' ) ;
#156 = PRODUCT_RELATED_PRODUCT_CATEGORY ( 'detail', '', ( #60 ) ) ;
#157 = CC_DESIGN_APPROVAL ( #171, ( #165 ) ) ;
#158 = VERTEX_POINT ( 'NONE', #88 ) ;
#159 = PERSON_AND_ORGANIZATION ( #81, #73 ) ;
#160 = ADVANCED_BREP_SHAPE_REPRESENTATION ( '115', ( #195, #53, #28 ), #130 ) ;
#161 = DIRECTION ( 'NONE',  ( -4.164172852729179455E-31, -1.000000000000000000, -1.172110456741091744E-16 ) ) ;
#162 = PERSON_AND_ORGANIZATION_ROLE ( 'design_supplier' ) ;
#163 = FACE_OUTER_BOUND ( 'NONE', #17, .T. ) ;
#164 = DIRECTION ( 'NONE',  ( 0.0000000000000000000, 0.0000000000000000000, 1.000000000000000000 ) ) ;
#165 = PRODUCT_DEFINITION_FORMATION_WITH_SPECIFIED_SOURCE ( 'ANY', '', #60, .NOT_KNOWN. ) ;
#166 = FACE_OUTER_BOUND ( 'NONE', #189, .T. ) ;
#167 = SECURITY_CLASSIFICATION_LEVEL ( 'unclassified' ) ;
#168 = CC_DESIGN_PERSON_AND_ORGANIZATION_ASSIGNMENT ( #102, #87, ( #165 ) ) ;
#169 = PRODUCT_DEFINITION_SHAPE ( 'NONE', 'NONE',  #203 ) ;
#170 = APPROVAL_PERSON_ORGANIZATION ( #19, #171, #69 ) ;
#171 = APPROVAL ( #114, 'UNSPECIFIED' ) ;
#172 = LOCAL_TIME ( 13, 25, 52.00000000000000000, #55 ) ;
#173 = ORIENTED_EDGE ( 'NONE', *, *, #107, .F. ) ;
#174 = DIRECTION ( 'NONE',  ( 4.275831445896957731E-31, 1.000000000000000000, 1.224646799147353207E-16 ) ) ;
#175 = APPLICATION_PROTOCOL_DEFINITION ( 'international standard', 'config_control_design', 1994, #186 ) ;
#176 = ADVANCED_FACE ( 'NONE', ( #163, #31 ), #146, .T. ) ;
#177 = DIRECTION ( 'NONE',  ( -3.491481338843133355E-15, 1.224646799147353207E-16, -1.000000000000000000 ) ) ;
#178 = CC_DESIGN_APPROVAL ( #106, ( #82 ) ) ;
#179 = DIRECTION ( 'NONE',  ( -3.491481338843133355E-15, 1.224646799147353207E-16, -1.000000000000000000 ) ) ;
#180 = CALENDAR_DATE ( 2021, 6, 10 ) ;
#181 = EDGE_CURVE ( 'NONE', #150, #150, #2, .T. ) ;
#182 = DIRECTION ( 'NONE',  ( -3.491481338843133355E-15, 1.224646799147353207E-16, -1.000000000000000000 ) ) ;
#183 = CALENDAR_DATE ( 2021, 6, 10 ) ;
#184 = CARTESIAN_POINT ( 'NONE',  ( 1.505996650112246455E-15, -5.282325174041151742E-17, 0.4313345837933771909 ) ) ;
#185 =( NAMED_UNIT ( * ) PLANE_ANGLE_UNIT ( ) SI_UNIT ( $, .RADIAN. ) );
#186 = APPLICATION_CONTEXT ( 'configuration controlled 3d designs of mechanical parts and assemblies' ) ;
#187 = AXIS2_PLACEMENT_3D ( 'NONE', #34, #182, #38 ) ;
#188 = CC_DESIGN_APPROVAL ( #193, ( #203 ) ) ;
#189 = EDGE_LOOP ( 'NONE', ( #65 ) ) ;
#190 = AXIS2_PLACEMENT_3D ( 'NONE', #91, #125, #129 ) ;
#191 = DESIGN_CONTEXT ( 'detailed design', #131, 'design' ) ;
#192 = LOCAL_TIME ( 13, 25, 52.00000000000000000, #144 ) ;
#193 = APPROVAL ( #72, 'UNSPECIFIED' ) ;
#194 = MECHANICAL_CONTEXT ( 'NONE', #186, 'mechanical' ) ;
#195 = MANIFOLD_SOLID_BREP ( 'Corps-Déplacer/Copier1[1]', #118 ) ;
#196 = VERTEX_POINT ( 'NONE', #8 ) ;
#197 = CALENDAR_DATE ( 2021, 6, 10 ) ;
#198 = CC_DESIGN_DATE_AND_TIME_ASSIGNMENT ( #49, #66, ( #82 ) ) ;
#199 = CC_DESIGN_SECURITY_CLASSIFICATION ( #82, ( #165 ) ) ;
#200 = FACE_OUTER_BOUND ( 'NONE', #120, .T. ) ;
#201 = APPROVAL_ROLE ( '' ) ;
#202 = PLANE ( 'NONE',  #61 ) ;
#203 = PRODUCT_DEFINITION ( 'UNKNOWN', '', #165, #191 ) ;
ENDSEC;
END-ISO-10303-21;
