ISO-10303-21;
HEADER;
FILE_DESCRIPTION (( 'STEP AP203' ),
    '1' );
FILE_NAME ('114.step',
    '2021-10-06T11:25:51',
    ( '' ),
    ( '' ),
    'SwSTEP 2.0',
    'SolidWorks 2019',
    '' );
FILE_SCHEMA (( 'CONFIG_CONTROL_DESIGN' ));
ENDSEC;

DATA;
#1 = EDGE_LOOP ( 'NONE', ( #101 ) ) ;
#2 = DIRECTION ( 'NONE',  ( 0.0000000000000000000, 0.0000000000000000000, 1.000000000000000000 ) ) ;
#3 = DIRECTION ( 'NONE',  ( -3.491481338843133355E-15, 1.224646799147353207E-16, -1.000000000000000000 ) ) ;
#4 = CIRCLE ( 'NONE', #37, 0.8999999999999972466 ) ;
#5 = ADVANCED_FACE ( 'NONE', ( #18, #133 ), #10, .T. ) ;
#6 = DIRECTION ( 'NONE',  ( 4.275831445896958607E-31, 1.000000000000000000, 1.224646799147353207E-16 ) ) ;
#7 = DIRECTION ( 'NONE',  ( 0.0000000000000000000, 1.000000000000000000, 0.0000000000000000000 ) ) ;
#8 = ADVANCED_FACE ( 'NONE', ( #171 ), #143, .T. ) ;
#9 = CARTESIAN_POINT ( 'NONE',  ( 1.465294037947050487E-15, 0.8999999999999953593, 0.4196768923395021722 ) ) ;
#10 = CONICAL_SURFACE ( 'NONE', #88, 0.6999999999999999556, 0.7853981633974512766 ) ;
#11 = APPROVAL_ROLE ( '' ) ;
#12 = DATE_TIME_ROLE ( 'classification_date' ) ;
#13 = PERSON_AND_ORGANIZATION_ROLE ( 'creator' ) ;
#14 = AXIS2_PLACEMENT_3D ( 'NONE', #40, #149, #6 ) ;
#15 = APPROVAL_STATUS ( 'not_yet_approved' ) ;
#16 = ORIENTED_EDGE ( 'NONE', *, *, #129, .T. ) ;
#17 = AXIS2_PLACEMENT_3D ( 'NONE', #165, #2, #94 ) ;
#18 = FACE_OUTER_BOUND ( 'NONE', #194, .T. ) ;
#19 = ORIENTED_EDGE ( 'NONE', *, *, #146, .T. ) ;
#20 = MANIFOLD_SOLID_BREP ( 'Corps-Déplacer/Copier1[1]', #148 ) ;
#21 = FACE_OUTER_BOUND ( 'NONE', #23, .T. ) ;
#22 = SECURITY_CLASSIFICATION ( '', '', #60 ) ;
#23 = EDGE_LOOP ( 'NONE', ( #158 ) ) ;
#24 = DIRECTION ( 'NONE',  ( 0.0000000000000000000, 1.000000000000000000, 0.0000000000000000000 ) ) ;
#25 = ADVANCED_FACE ( 'NONE', ( #130, #115 ), #176, .T. ) ;
#26 = PERSON_AND_ORGANIZATION ( #35, #147 ) ;
#27 = DIRECTION ( 'NONE',  ( 4.279844320860545916E-31, 1.000000000000000000, 1.204669080539455507E-16 ) ) ;
#28 = DIRECTION ( 'NONE',  ( -3.491481338843133355E-15, 1.224646799147353207E-16, -1.000000000000000000 ) ) ;
#29 = AXIS2_PLACEMENT_3D ( 'NONE', #54, #195, #119 ) ;
#30 = APPROVAL_DATE_TIME ( #80, #135 ) ;
#31 = DATE_AND_TIME ( #45, #77 ) ;
#32 = PRODUCT_RELATED_PRODUCT_CATEGORY ( 'detail', '', ( #73 ) ) ;
#33 = AXIS2_PLACEMENT_3D ( 'NONE', #55, #190, #175 ) ;
#34 = EDGE_LOOP ( 'NONE', ( #19 ) ) ;
#35 = PERSON ( 'UNSPECIFIED', 'UNSPECIFIED', 'UNSPECIFIED', ('UNSPECIFIED'), ('UNSPECIFIED'), ('UNSPECIFIED') ) ;
#36 = FACE_OUTER_BOUND ( 'NONE', #66, .T. ) ;
#37 = AXIS2_PLACEMENT_3D ( 'NONE', #196, #3, #43 ) ;
#38 = CARTESIAN_POINT ( 'NONE',  ( 0.0000000000000000000, 0.0000000000000000000, 0.0000000000000000000 ) ) ;
#39 = CC_DESIGN_PERSON_AND_ORGANIZATION_ASSIGNMENT ( #26, #91, ( #73 ) ) ;
#40 = CARTESIAN_POINT ( 'NONE',  ( 1.326762908760390423E-13, 5.249159239316431836E-33, 38.00000000000000000 ) ) ;
#41 = APPROVAL_ROLE ( '' ) ;
#42 = CARTESIAN_POINT ( 'NONE',  ( 1.465294037947050093E-15, -5.139559628796795407E-17, 0.4196768923395020612 ) ) ;
#43 = DIRECTION ( 'NONE',  ( 0.0000000000000000000, 1.000000000000000000, 0.0000000000000000000 ) ) ;
#44 = APPROVAL_STATUS ( 'not_yet_approved' ) ;
#45 = CALENDAR_DATE ( 2021, 6, 10 ) ;
#46 = CC_DESIGN_SECURITY_CLASSIFICATION ( #22, ( #136 ) ) ;
#47 = ADVANCED_FACE ( 'NONE', ( #21, #36 ), #102, .T. ) ;
#48 = COORDINATED_UNIVERSAL_TIME_OFFSET ( 1, 0, .AHEAD. ) ;
#49 = CIRCLE ( 'NONE', #103, 0.9000000000000000222 ) ;
#50 = DIRECTION ( 'NONE',  ( 0.0000000000000000000, 1.000000000000000000, 0.0000000000000000000 ) ) ;
#51 = APPLICATION_CONTEXT ( 'configuration controlled 3d designs of mechanical parts and assemblies' ) ;
#52 = FACE_OUTER_BOUND ( 'NONE', #67, .T. ) ;
#53 = AXIS2_PLACEMENT_3D ( 'NONE', #38, #172, #160 ) ;
#54 = CARTESIAN_POINT ( 'NONE',  ( 5.586370142149013368E-14, 6.748919021978309971E-33, 16.00000000000000000 ) ) ;
#55 = CARTESIAN_POINT ( 'NONE',  ( 5.586370142149013368E-14, 6.748919021978309971E-33, 16.00000000000000000 ) ) ;
#56 = AXIS2_PLACEMENT_3D ( 'NONE', #198, #58, #27 ) ;
#57 = APPLICATION_PROTOCOL_DEFINITION ( 'international standard', 'config_control_design', 1994, #156 ) ;
#58 = DIRECTION ( 'NONE',  ( -3.491481338843133355E-15, 1.224646799147353207E-16, -1.000000000000000000 ) ) ;
#59 = CARTESIAN_POINT ( 'NONE',  ( 1.326762908760390423E-13, 0.6999999999999952927, 38.00000000000000000 ) ) ;
#60 = SECURITY_CLASSIFICATION_LEVEL ( 'unclassified' ) ;
#61 = PRODUCT_DEFINITION ( 'UNKNOWN', '', #136, #201 ) ;
#62 = APPROVAL_DATE_TIME ( #31, #122 ) ;
#63 = LOCAL_TIME ( 13, 25, 51.00000000000000000, #84 ) ;
#64 = PERSON_AND_ORGANIZATION ( #35, #147 ) ;
#65 = PERSON_AND_ORGANIZATION ( #35, #147 ) ;
#66 = EDGE_LOOP ( 'NONE', ( #145 ) ) ;
#67 = EDGE_LOOP ( 'NONE', ( #177 ) ) ;
#68 = DIRECTION ( 'NONE',  ( 4.275831445896958607E-31, 1.000000000000000000, 1.224646799147353207E-16 ) ) ;
#69 = CC_DESIGN_PERSON_AND_ORGANIZATION_ASSIGNMENT ( #64, #186, ( #22 ) ) ;
#70 = EDGE_LOOP ( 'NONE', ( #104 ) ) ;
#71 = MECHANICAL_CONTEXT ( 'NONE', #51, 'mechanical' ) ;
#72 = CARTESIAN_POINT ( 'NONE',  ( 1.326762908760390423E-13, -4.653657836759941941E-15, 38.00000000000000000 ) ) ;
#73 = PRODUCT ( '114', '114', '', ( #71 ) ) ;
#74 = VERTEX_POINT ( 'NONE', #9 ) ;
#75 = APPLICATION_PROTOCOL_DEFINITION ( 'international standard', 'config_control_design', 1994, #51 ) ;
#76 = UNCERTAINTY_MEASURE_WITH_UNIT (LENGTH_MEASURE( 1.000000000000000082E-05 ), #202, 'distance_accuracy_value', 'NONE');
#77 = LOCAL_TIME ( 13, 25, 51.00000000000000000, #141 ) ;
#78 = FACE_OUTER_BOUND ( 'NONE', #34, .T. ) ;
#79 = CC_DESIGN_PERSON_AND_ORGANIZATION_ASSIGNMENT ( #185, #97, ( #136 ) ) ;
#80 = DATE_AND_TIME ( #169, #98 ) ;
#81 = DATE_AND_TIME ( #112, #162 ) ;
#82 = APPROVAL_DATE_TIME ( #81, #153 ) ;
#83 = ADVANCED_FACE ( 'NONE', ( #52 ), #131, .F. ) ;
#84 = COORDINATED_UNIVERSAL_TIME_OFFSET ( 1, 0, .AHEAD. ) ;
#85 = ORIENTED_EDGE ( 'NONE', *, *, #89, .T. ) ;
#86 = CARTESIAN_POINT ( 'NONE',  ( 0.0000000000000000000, 0.0000000000000000000, 0.0000000000000000000 ) ) ;
#87 = DIRECTION ( 'NONE',  ( -3.491481338843133355E-15, 1.224646799147353207E-16, -1.000000000000000000 ) ) ;
#88 = AXIS2_PLACEMENT_3D ( 'NONE', #116, #87, #50 ) ;
#89 = EDGE_CURVE ( 'NONE', #123, #123, #179, .T. ) ;
#90 = CARTESIAN_POINT ( 'NONE',  ( 1.319779946082704535E-13, -4.629164900776995227E-15, 37.79999999999999716 ) ) ;
#91 = PERSON_AND_ORGANIZATION_ROLE ( 'design_owner' ) ;
#92 = LOCAL_TIME ( 13, 25, 51.00000000000000000, #100 ) ;
#93 = PLANE ( 'NONE',  #14 ) ;
#94 = DIRECTION ( 'NONE',  ( 1.000000000000000000, 0.0000000000000000000, 0.0000000000000000000 ) ) ;
#95 = DIRECTION ( 'NONE',  ( 3.491481338843133355E-15, -1.224646799147353207E-16, 1.000000000000000000 ) ) ;
#96 = COORDINATED_UNIVERSAL_TIME_OFFSET ( 1, 0, .AHEAD. ) ;
#97 = PERSON_AND_ORGANIZATION_ROLE ( 'creator' ) ;
#98 = LOCAL_TIME ( 13, 25, 51.00000000000000000, #96 ) ;
#99 = CC_DESIGN_DATE_AND_TIME_ASSIGNMENT ( #187, #12, ( #22 ) ) ;
#100 = COORDINATED_UNIVERSAL_TIME_OFFSET ( 1, 0, .AHEAD. ) ;
#101 = ORIENTED_EDGE ( 'NONE', *, *, #129, .F. ) ;
#102 = CYLINDRICAL_SURFACE ( 'NONE', #125, 0.8999999999999986899 ) ;
#103 = AXIS2_PLACEMENT_3D ( 'NONE', #90, #28, #197 ) ;
#104 = ORIENTED_EDGE ( 'NONE', *, *, #146, .F. ) ;
#105 = EDGE_LOOP ( 'NONE', ( #188 ) ) ;
#106 = CARTESIAN_POINT ( 'NONE',  ( 5.586370142149013368E-14, -1.959434878635765131E-15, 16.00000000000000000 ) ) ;
#107 = CARTESIAN_POINT ( 'NONE',  ( 5.586370142149013368E-14, 0.8999999999999953593, 16.00000000000000000 ) ) ;
#108 = CIRCLE ( 'NONE', #56, 0.8999999999999953593 ) ;
#109 = CARTESIAN_POINT ( 'NONE',  ( 1.319779946082704535E-13, 0.8999999999999953593, 37.79999999999999716 ) ) ;
#110 =( GEOMETRIC_REPRESENTATION_CONTEXT ( 3 ) GLOBAL_UNCERTAINTY_ASSIGNED_CONTEXT ( ( #76 ) ) GLOBAL_UNIT_ASSIGNED_CONTEXT ( ( #202, #150, #178 ) ) REPRESENTATION_CONTEXT ( 'NONE', 'WORKASPACE' ) );
#111 = CALENDAR_DATE ( 2021, 6, 10 ) ;
#112 = CALENDAR_DATE ( 2021, 6, 10 ) ;
#113 = CC_DESIGN_APPROVAL ( #122, ( #136 ) ) ;
#114 = CC_DESIGN_PERSON_AND_ORGANIZATION_ASSIGNMENT ( #65, #13, ( #61 ) ) ;
#115 = FACE_OUTER_BOUND ( 'NONE', #134, .T. ) ;
#116 = CARTESIAN_POINT ( 'NONE',  ( 1.326762908760390423E-13, -4.653657836759941941E-15, 38.00000000000000000 ) ) ;
#117 = CC_DESIGN_APPROVAL ( #135, ( #22 ) ) ;
#118 = PRODUCT_DEFINITION_SHAPE ( 'NONE', 'NONE',  #61 ) ;
#119 = DIRECTION ( 'NONE',  ( -4.275831445896958607E-31, -1.000000000000000000, -1.224646799147353207E-16 ) ) ;
#120 = CONICAL_SURFACE ( 'NONE', #128, 0.8999999999999953593, 1.134464013796309123 ) ;
#121 = PERSON_AND_ORGANIZATION ( #35, #147 ) ;
#122 = APPROVAL ( #44, 'UNSPECIFIED' ) ;
#123 = VERTEX_POINT ( 'NONE', #107 ) ;
#124 = PERSON_AND_ORGANIZATION ( #35, #147 ) ;
#125 = AXIS2_PLACEMENT_3D ( 'NONE', #86, #144, #68 ) ;
#126 = SHAPE_DEFINITION_REPRESENTATION ( #118, #199 ) ;
#127 = EDGE_CURVE ( 'NONE', #163, #163, #49, .T. ) ;
#128 = AXIS2_PLACEMENT_3D ( 'NONE', #42, #95, #181 ) ;
#129 = EDGE_CURVE ( 'NONE', #151, #151, #191, .T. ) ;
#130 = FACE_OUTER_BOUND ( 'NONE', #70, .T. ) ;
#131 = PLANE ( 'NONE',  #33 ) ;
#132 = CLOSED_SHELL ( 'NONE', ( #173, #25, #8 ) ) ;
#133 = FACE_BOUND ( 'NONE', #192, .T. ) ;
#134 = EDGE_LOOP ( 'NONE', ( #85 ) ) ;
#135 = APPROVAL ( #15, 'UNSPECIFIED' ) ;
#136 = PRODUCT_DEFINITION_FORMATION_WITH_SPECIFIED_SOURCE ( 'ANY', '', #73, .NOT_KNOWN. ) ;
#137 = VERTEX_POINT ( 'NONE', #139 ) ;
#138 = APPROVAL_PERSON_ORGANIZATION ( #154, #135, #170 ) ;
#139 = CARTESIAN_POINT ( 'NONE',  ( 5.586370142149013368E-14, 0.8999999999999953593, 16.00000000000000000 ) ) ;
#140 = DATE_TIME_ROLE ( 'creation_date' ) ;
#141 = COORDINATED_UNIVERSAL_TIME_OFFSET ( 1, 0, .AHEAD. ) ;
#142 = CC_DESIGN_DATE_AND_TIME_ASSIGNMENT ( #155, #140, ( #61 ) ) ;
#143 = PLANE ( 'NONE',  #29 ) ;
#144 = DIRECTION ( 'NONE',  ( -3.491481338843133355E-15, 1.224646799147353207E-16, -1.000000000000000000 ) ) ;
#145 = ORIENTED_EDGE ( 'NONE', *, *, #127, .T. ) ;
#146 = EDGE_CURVE ( 'NONE', #74, #74, #108, .T. ) ;
#147 = ORGANIZATION ( 'UNSPECIFIED', 'UNSPECIFIED', '' ) ;
#148 = CLOSED_SHELL ( 'NONE', ( #83, #47, #5, #189 ) ) ;
#149 = DIRECTION ( 'NONE',  ( -3.491481338843133355E-15, 1.224646799147353207E-16, -1.000000000000000000 ) ) ;
#150 =( NAMED_UNIT ( * ) PLANE_ANGLE_UNIT ( ) SI_UNIT ( $, .RADIAN. ) );
#151 = VERTEX_POINT ( 'NONE', #59 ) ;
#152 = PERSON_AND_ORGANIZATION_ROLE ( 'design_supplier' ) ;
#153 = APPROVAL ( #180, 'UNSPECIFIED' ) ;
#154 = PERSON_AND_ORGANIZATION ( #35, #147 ) ;
#155 = DATE_AND_TIME ( #111, #63 ) ;
#156 = APPLICATION_CONTEXT ( 'configuration controlled 3d designs of mechanical parts and assemblies' ) ;
#157 = MANIFOLD_SOLID_BREP ( 'Corps-Déplacer/Copier1[2]', #132 ) ;
#158 = ORIENTED_EDGE ( 'NONE', *, *, #193, .F. ) ;
#159 = ORIENTED_EDGE ( 'NONE', *, *, #127, .F. ) ;
#160 = DIRECTION ( 'NONE',  ( 4.275831445896958607E-31, 1.000000000000000000, 1.224646799147353454E-16 ) ) ;
#161 = DIRECTION ( 'NONE',  ( -3.491481338843133355E-15, 1.224646799147353207E-16, -1.000000000000000000 ) ) ;
#162 = LOCAL_TIME ( 13, 25, 51.00000000000000000, #48 ) ;
#163 = VERTEX_POINT ( 'NONE', #109 ) ;
#164 = AXIS2_PLACEMENT_3D ( 'NONE', #106, #161, #24 ) ;
#165 = CARTESIAN_POINT ( 'NONE',  ( 0.0000000000000000000, 0.0000000000000000000, 0.0000000000000000000 ) ) ;
#166 = DIRECTION ( 'NONE',  ( -3.491481338843133355E-15, 1.224646799147353207E-16, -1.000000000000000000 ) ) ;
#167 = AXIS2_PLACEMENT_3D ( 'NONE', #72, #166, #7 ) ;
#168 = CC_DESIGN_PERSON_AND_ORGANIZATION_ASSIGNMENT ( #124, #152, ( #136 ) ) ;
#169 = CALENDAR_DATE ( 2021, 6, 10 ) ;
#170 = APPROVAL_ROLE ( '' ) ;
#171 = FACE_OUTER_BOUND ( 'NONE', #105, .T. ) ;
#172 = DIRECTION ( 'NONE',  ( -3.491481338843133355E-15, 1.224646799147353207E-16, -1.000000000000000000 ) ) ;
#173 = ADVANCED_FACE ( 'NONE', ( #78 ), #120, .T. ) ;
#174 = APPROVAL_PERSON_ORGANIZATION ( #184, #122, #11 ) ;
#175 = DIRECTION ( 'NONE',  ( -4.275831445896958607E-31, -1.000000000000000000, -1.224646799147353207E-16 ) ) ;
#176 = CYLINDRICAL_SURFACE ( 'NONE', #53, 0.8999999999999962474 ) ;
#177 = ORIENTED_EDGE ( 'NONE', *, *, #193, .T. ) ;
#178 =( NAMED_UNIT ( * ) SI_UNIT ( $, .STERADIAN. ) SOLID_ANGLE_UNIT ( ) );
#179 = CIRCLE ( 'NONE', #164, 0.8999999999999972466 ) ;
#180 = APPROVAL_STATUS ( 'not_yet_approved' ) ;
#181 = DIRECTION ( 'NONE',  ( -4.279844320860545916E-31, -1.000000000000000000, -1.204669080539455507E-16 ) ) ;
#182 = APPROVAL_PERSON_ORGANIZATION ( #121, #153, #41 ) ;
#183 = FACE_OUTER_BOUND ( 'NONE', #1, .T. ) ;
#184 = PERSON_AND_ORGANIZATION ( #35, #147 ) ;
#185 = PERSON_AND_ORGANIZATION ( #35, #147 ) ;
#186 = PERSON_AND_ORGANIZATION_ROLE ( 'classification_officer' ) ;
#187 = DATE_AND_TIME ( #203, #92 ) ;
#188 = ORIENTED_EDGE ( 'NONE', *, *, #89, .F. ) ;
#189 = ADVANCED_FACE ( 'NONE', ( #183 ), #93, .F. ) ;
#190 = DIRECTION ( 'NONE',  ( 3.491481338843133355E-15, -1.224646799147353207E-16, 1.000000000000000000 ) ) ;
#191 = CIRCLE ( 'NONE', #167, 0.6999999999999999556 ) ;
#192 = EDGE_LOOP ( 'NONE', ( #16 ) ) ;
#193 = EDGE_CURVE ( 'NONE', #137, #137, #4, .T. ) ;
#194 = EDGE_LOOP ( 'NONE', ( #159 ) ) ;
#195 = DIRECTION ( 'NONE',  ( 3.491481338843133355E-15, -1.224646799147353207E-16, 1.000000000000000000 ) ) ;
#196 = CARTESIAN_POINT ( 'NONE',  ( 5.586370142149013368E-14, -1.959434878635765131E-15, 16.00000000000000000 ) ) ;
#197 = DIRECTION ( 'NONE',  ( 0.0000000000000000000, 1.000000000000000000, 0.0000000000000000000 ) ) ;
#198 = CARTESIAN_POINT ( 'NONE',  ( 1.465294037947050093E-15, -5.139559628796795407E-17, 0.4196768923395020612 ) ) ;
#199 = ADVANCED_BREP_SHAPE_REPRESENTATION ( '114', ( #20, #157, #17 ), #110 ) ;
#200 = CC_DESIGN_APPROVAL ( #153, ( #61 ) ) ;
#201 = DESIGN_CONTEXT ( 'detailed design', #156, 'design' ) ;
#202 =( LENGTH_UNIT ( ) NAMED_UNIT ( * ) SI_UNIT ( .MILLI., .METRE. ) );
#203 = CALENDAR_DATE ( 2021, 6, 10 ) ;
ENDSEC;
END-ISO-10303-21;
