ISO-10303-21;
HEADER;
FILE_DESCRIPTION (( 'STEP AP203' ),
    '1' );
FILE_NAME ('113.step',
    '2021-10-06T11:25:50',
    ( '' ),
    ( '' ),
    'SwSTEP 2.0',
    'SolidWorks 2019',
    '' );
FILE_SCHEMA (( 'CONFIG_CONTROL_DESIGN' ));
ENDSEC;

DATA;
#1 = SECURITY_CLASSIFICATION_LEVEL ( 'unclassified' ) ;
#2 = ORIENTED_EDGE ( 'NONE', *, *, #99, .F. ) ;
#3 = APPROVAL_PERSON_ORGANIZATION ( #112, #71, #189 ) ;
#4 = PERSON_AND_ORGANIZATION_ROLE ( 'classification_officer' ) ;
#5 = APPLICATION_PROTOCOL_DEFINITION ( 'international standard', 'config_control_design', 1994, #125 ) ;
#6 = SHAPE_DEFINITION_REPRESENTATION ( #83, #171 ) ;
#7 = FACE_OUTER_BOUND ( 'NONE', #17, .T. ) ;
#8 = DIRECTION ( 'NONE',  ( -4.531599869146461927E-31, -1.000000000000000000, -1.275531967630012148E-16 ) ) ;
#9 = FACE_OUTER_BOUND ( 'NONE', #175, .T. ) ;
#10 = CARTESIAN_POINT ( 'NONE',  ( 1.319779946082704535E-13, 0.8499999999999953149, 37.79999999999999716 ) ) ;
#11 = CC_DESIGN_PERSON_AND_ORGANIZATION_ASSIGNMENT ( #79, #95, ( #27 ) ) ;
#12 = PERSON_AND_ORGANIZATION_ROLE ( 'design_owner' ) ;
#13 = EDGE_LOOP ( 'NONE', ( #134 ) ) ;
#14 = AXIS2_PLACEMENT_3D ( 'NONE', #105, #24, #87 ) ;
#15 = APPROVAL_STATUS ( 'not_yet_approved' ) ;
#16 = PERSON_AND_ORGANIZATION_ROLE ( 'creator' ) ;
#17 = EDGE_LOOP ( 'NONE', ( #94 ) ) ;
#18 = SECURITY_CLASSIFICATION ( '', '', #1 ) ;
#19 =( LENGTH_UNIT ( ) NAMED_UNIT ( * ) SI_UNIT ( .MILLI., .METRE. ) );
#20 = CC_DESIGN_PERSON_AND_ORGANIZATION_ASSIGNMENT ( #48, #12, ( #120 ) ) ;
#21 = DIRECTION ( 'NONE',  ( -3.491481338843133355E-15, 1.224646799147353207E-16, -1.000000000000000000 ) ) ;
#22 = EDGE_CURVE ( 'NONE', #185, #185, #69, .T. ) ;
#23 = DIRECTION ( 'NONE',  ( -3.491481338843133355E-15, 1.224646799147353207E-16, -1.000000000000000000 ) ) ;
#24 = DIRECTION ( 'NONE',  ( 3.491481338843133355E-15, -1.224646799147353207E-16, 1.000000000000000000 ) ) ;
#25 = CARTESIAN_POINT ( 'NONE',  ( 1.383888813616658355E-15, 0.8499999999999953149, 0.3963615094317519127 ) ) ;
#26 = DIRECTION ( 'NONE',  ( 0.0000000000000000000, 1.000000000000000000, 0.0000000000000000000 ) ) ;
#27 = PRODUCT_DEFINITION ( 'UNKNOWN', '', #149, #152 ) ;
#28 = LOCAL_TIME ( 13, 25, 50.00000000000000000, #29 ) ;
#29 = COORDINATED_UNIVERSAL_TIME_OFFSET ( 1, 0, .AHEAD. ) ;
#30 = EDGE_LOOP ( 'NONE', ( #32 ) ) ;
#31 = CALENDAR_DATE ( 2021, 6, 10 ) ;
#32 = ORIENTED_EDGE ( 'NONE', *, *, #89, .T. ) ;
#33 = APPROVAL_ROLE ( '' ) ;
#34 = ORIENTED_EDGE ( 'NONE', *, *, #99, .T. ) ;
#35 = DATE_AND_TIME ( #36, #142 ) ;
#36 = CALENDAR_DATE ( 2021, 6, 10 ) ;
#37 = AXIS2_PLACEMENT_3D ( 'NONE', #124, #183, #143 ) ;
#38 = CC_DESIGN_SECURITY_CLASSIFICATION ( #18, ( #149 ) ) ;
#39 = CARTESIAN_POINT ( 'NONE',  ( 5.586370142149013368E-14, -1.959434878635765131E-15, 16.00000000000000000 ) ) ;
#40 = FACE_OUTER_BOUND ( 'NONE', #30, .T. ) ;
#41 = PLANE ( 'NONE',  #173 ) ;
#42 = AXIS2_PLACEMENT_3D ( 'NONE', #150, #161, #145 ) ;
#43 = FACE_OUTER_BOUND ( 'NONE', #188, .T. ) ;
#44 = PRODUCT_RELATED_PRODUCT_CATEGORY ( 'detail', '', ( #120 ) ) ;
#45 = CLOSED_SHELL ( 'NONE', ( #166, #57, #128, #116 ) ) ;
#46 = FACE_OUTER_BOUND ( 'NONE', #191, .T. ) ;
#47 = EDGE_LOOP ( 'NONE', ( #111 ) ) ;
#48 = PERSON_AND_ORGANIZATION ( #84, #137 ) ;
#49 = APPROVAL ( #192, 'UNSPECIFIED' ) ;
#50 = COORDINATED_UNIVERSAL_TIME_OFFSET ( 1, 0, .AHEAD. ) ;
#51 = APPROVAL_ROLE ( '' ) ;
#52 = DATE_AND_TIME ( #162, #80 ) ;
#53 = CARTESIAN_POINT ( 'NONE',  ( 1.326762908760390423E-13, 4.874219293650967434E-33, 38.00000000000000000 ) ) ;
#54 = CIRCLE ( 'NONE', #37, 0.6500000000000000222 ) ;
#55 = APPROVAL_PERSON_ORGANIZATION ( #193, #190, #33 ) ;
#56 = DIRECTION ( 'NONE',  ( -3.491481338843133355E-15, 1.224646799147353207E-16, -1.000000000000000000 ) ) ;
#57 = ADVANCED_FACE ( 'NONE', ( #86, #46 ), #170, .T. ) ;
#58 = CARTESIAN_POINT ( 'NONE',  ( 5.586370142149013368E-14, 0.8499999999999953149, 16.00000000000000000 ) ) ;
#59 = FACE_OUTER_BOUND ( 'NONE', #163, .T. ) ;
#60 = LOCAL_TIME ( 13, 25, 50.00000000000000000, #101 ) ;
#61 = PERSON_AND_ORGANIZATION ( #84, #137 ) ;
#62 = EDGE_LOOP ( 'NONE', ( #148 ) ) ;
#63 = PERSON_AND_ORGANIZATION ( #84, #137 ) ;
#64 = CALENDAR_DATE ( 2021, 6, 10 ) ;
#65 = PLANE ( 'NONE',  #129 ) ;
#66 = CALENDAR_DATE ( 2021, 6, 10 ) ;
#67 = DIRECTION ( 'NONE',  ( 4.275831445896958607E-31, 1.000000000000000000, 1.224646799147353454E-16 ) ) ;
#68 = AXIS2_PLACEMENT_3D ( 'NONE', #180, #21, #85 ) ;
#69 = CIRCLE ( 'NONE', #68, 0.8499999999999953149 ) ;
#70 = FACE_BOUND ( 'NONE', #47, .T. ) ;
#71 = APPROVAL ( #113, 'UNSPECIFIED' ) ;
#72 = VERTEX_POINT ( 'NONE', #126 ) ;
#73 = DIRECTION ( 'NONE',  ( 3.491481338843133355E-15, -1.224646799147353207E-16, 1.000000000000000000 ) ) ;
#74 = CC_DESIGN_PERSON_AND_ORGANIZATION_ASSIGNMENT ( #174, #16, ( #149 ) ) ;
#75 = EDGE_LOOP ( 'NONE', ( #97 ) ) ;
#76 = APPROVAL_DATE_TIME ( #177, #71 ) ;
#77 = PERSON_AND_ORGANIZATION ( #84, #137 ) ;
#78 = ORIENTED_EDGE ( 'NONE', *, *, #167, .T. ) ;
#79 = PERSON_AND_ORGANIZATION ( #84, #137 ) ;
#80 = LOCAL_TIME ( 13, 25, 50.00000000000000000, #96 ) ;
#81 = CARTESIAN_POINT ( 'NONE',  ( 1.326762908760390423E-13, 0.6499999999999953593, 38.00000000000000000 ) ) ;
#82 = MANIFOLD_SOLID_BREP ( 'Corps-Déplacer/Copier1[2]', #165 ) ;
#83 = PRODUCT_DEFINITION_SHAPE ( 'NONE', 'NONE',  #27 ) ;
#84 = PERSON ( 'UNSPECIFIED', 'UNSPECIFIED', 'UNSPECIFIED', ('UNSPECIFIED'), ('UNSPECIFIED'), ('UNSPECIFIED') ) ;
#85 = DIRECTION ( 'NONE',  ( 4.531599869146461927E-31, 1.000000000000000000, 1.275531967630012148E-16 ) ) ;
#86 = FACE_OUTER_BOUND ( 'NONE', #13, .T. ) ;
#87 = DIRECTION ( 'NONE',  ( -4.275831445896958607E-31, -1.000000000000000000, -1.224646799147353207E-16 ) ) ;
#88 =( GEOMETRIC_REPRESENTATION_CONTEXT ( 3 ) GLOBAL_UNCERTAINTY_ASSIGNED_CONTEXT ( ( #102 ) ) GLOBAL_UNIT_ASSIGNED_CONTEXT ( ( #19, #133, #132 ) ) REPRESENTATION_CONTEXT ( 'NONE', 'WORKASPACE' ) );
#89 = EDGE_CURVE ( 'NONE', #90, #90, #203, .T. ) ;
#90 = VERTEX_POINT ( 'NONE', #58 ) ;
#91 = DIRECTION ( 'NONE',  ( -3.491481338843133355E-15, 1.224646799147353207E-16, -1.000000000000000000 ) ) ;
#92 = CIRCLE ( 'NONE', #140, 0.8499999999999972022 ) ;
#93 = MECHANICAL_CONTEXT ( 'NONE', #125, 'mechanical' ) ;
#94 = ORIENTED_EDGE ( 'NONE', *, *, #22, .T. ) ;
#95 = PERSON_AND_ORGANIZATION_ROLE ( 'creator' ) ;
#96 = COORDINATED_UNIVERSAL_TIME_OFFSET ( 1, 0, .AHEAD. ) ;
#97 = ORIENTED_EDGE ( 'NONE', *, *, #194, .F. ) ;
#98 = DATE_TIME_ROLE ( 'classification_date' ) ;
#99 = EDGE_CURVE ( 'NONE', #158, #158, #164, .T. ) ;
#100 = AXIS2_PLACEMENT_3D ( 'NONE', #39, #23, #110 ) ;
#101 = COORDINATED_UNIVERSAL_TIME_OFFSET ( 1, 0, .AHEAD. ) ;
#102 = UNCERTAINTY_MEASURE_WITH_UNIT (LENGTH_MEASURE( 1.000000000000000082E-05 ), #19, 'distance_accuracy_value', 'NONE');
#103 = DIRECTION ( 'NONE',  ( 0.0000000000000000000, 1.000000000000000000, 0.0000000000000000000 ) ) ;
#104 = CC_DESIGN_PERSON_AND_ORGANIZATION_ASSIGNMENT ( #77, #147, ( #149 ) ) ;
#105 = CARTESIAN_POINT ( 'NONE',  ( 5.586370142149013368E-14, 6.373979076312845569E-33, 16.00000000000000000 ) ) ;
#106 = PLANE ( 'NONE',  #14 ) ;
#107 = VERTEX_POINT ( 'NONE', #81 ) ;
#108 = ADVANCED_FACE ( 'NONE', ( #7 ), #172, .T. ) ;
#109 = LOCAL_TIME ( 13, 25, 50.00000000000000000, #176 ) ;
#110 = DIRECTION ( 'NONE',  ( 0.0000000000000000000, 1.000000000000000000, 0.0000000000000000000 ) ) ;
#111 = ORIENTED_EDGE ( 'NONE', *, *, #194, .T. ) ;
#112 = PERSON_AND_ORGANIZATION ( #84, #137 ) ;
#113 = APPROVAL_STATUS ( 'not_yet_approved' ) ;
#114 = ORIENTED_EDGE ( 'NONE', *, *, #167, .F. ) ;
#115 = DATE_TIME_ROLE ( 'creation_date' ) ;
#116 = ADVANCED_FACE ( 'NONE', ( #144 ), #65, .F. ) ;
#117 = DATE_AND_TIME ( #66, #60 ) ;
#118 = CC_DESIGN_APPROVAL ( #49, ( #18 ) ) ;
#119 = APPROVAL_DATE_TIME ( #117, #49 ) ;
#120 = PRODUCT ( '113', '113', '', ( #93 ) ) ;
#121 = AXIS2_PLACEMENT_3D ( 'NONE', #168, #184, #67 ) ;
#122 = CYLINDRICAL_SURFACE ( 'NONE', #155, 0.8499999999999963141 ) ;
#123 = CARTESIAN_POINT ( 'NONE',  ( 0.0000000000000000000, 0.0000000000000000000, 0.0000000000000000000 ) ) ;
#124 = CARTESIAN_POINT ( 'NONE',  ( 1.326762908760390423E-13, -4.653657836759941941E-15, 38.00000000000000000 ) ) ;
#125 = APPLICATION_CONTEXT ( 'configuration controlled 3d designs of mechanical parts and assemblies' ) ;
#126 = CARTESIAN_POINT ( 'NONE',  ( 5.586370142149013368E-14, 0.8499999999999953149, 16.00000000000000000 ) ) ;
#127 = DIRECTION ( 'NONE',  ( -4.275831445896958607E-31, -1.000000000000000000, -1.224646799147353207E-16 ) ) ;
#128 = ADVANCED_FACE ( 'NONE', ( #9, #70 ), #178, .T. ) ;
#129 = AXIS2_PLACEMENT_3D ( 'NONE', #53, #56, #141 ) ;
#130 = CC_DESIGN_PERSON_AND_ORGANIZATION_ASSIGNMENT ( #61, #4, ( #18 ) ) ;
#131 = APPLICATION_PROTOCOL_DEFINITION ( 'international standard', 'config_control_design', 1994, #146 ) ;
#132 =( NAMED_UNIT ( * ) SI_UNIT ( $, .STERADIAN. ) SOLID_ANGLE_UNIT ( ) );
#133 =( NAMED_UNIT ( * ) PLANE_ANGLE_UNIT ( ) SI_UNIT ( $, .RADIAN. ) );
#134 = ORIENTED_EDGE ( 'NONE', *, *, #89, .F. ) ;
#135 = APPROVAL_DATE_TIME ( #52, #190 ) ;
#136 = DATE_AND_TIME ( #31, #28 ) ;
#137 = ORGANIZATION ( 'UNSPECIFIED', 'UNSPECIFIED', '' ) ;
#138 = ADVANCED_FACE ( 'NONE', ( #195, #59 ), #122, .T. ) ;
#139 = CARTESIAN_POINT ( 'NONE',  ( 1.326762908760390423E-13, -4.653657836759941941E-15, 38.00000000000000000 ) ) ;
#140 = AXIS2_PLACEMENT_3D ( 'NONE', #156, #159, #198 ) ;
#141 = DIRECTION ( 'NONE',  ( 4.275831445896958607E-31, 1.000000000000000000, 1.224646799147353207E-16 ) ) ;
#142 = LOCAL_TIME ( 13, 25, 50.00000000000000000, #50 ) ;
#143 = DIRECTION ( 'NONE',  ( 0.0000000000000000000, 1.000000000000000000, 0.0000000000000000000 ) ) ;
#144 = FACE_OUTER_BOUND ( 'NONE', #75, .T. ) ;
#145 = DIRECTION ( 'NONE',  ( 1.000000000000000000, 0.0000000000000000000, 0.0000000000000000000 ) ) ;
#146 = APPLICATION_CONTEXT ( 'configuration controlled 3d designs of mechanical parts and assemblies' ) ;
#147 = PERSON_AND_ORGANIZATION_ROLE ( 'design_supplier' ) ;
#148 = ORIENTED_EDGE ( 'NONE', *, *, #22, .F. ) ;
#149 = PRODUCT_DEFINITION_FORMATION_WITH_SPECIFIED_SOURCE ( 'ANY', '', #120, .NOT_KNOWN. ) ;
#150 = CARTESIAN_POINT ( 'NONE',  ( 0.0000000000000000000, 0.0000000000000000000, 0.0000000000000000000 ) ) ;
#151 = CARTESIAN_POINT ( 'NONE',  ( 1.319779946082704535E-13, -4.629164900776995227E-15, 37.79999999999999716 ) ) ;
#152 = DESIGN_CONTEXT ( 'detailed design', #146, 'design' ) ;
#153 = CARTESIAN_POINT ( 'NONE',  ( 1.383888813616657961E-15, -4.854028538308082736E-17, 0.3963615094317518017 ) ) ;
#154 = MANIFOLD_SOLID_BREP ( 'Corps-Déplacer/Copier1[1]', #45 ) ;
#155 = AXIS2_PLACEMENT_3D ( 'NONE', #123, #91, #181 ) ;
#156 = CARTESIAN_POINT ( 'NONE',  ( 5.586370142149013368E-14, -1.959434878635765131E-15, 16.00000000000000000 ) ) ;
#157 = AXIS2_PLACEMENT_3D ( 'NONE', #151, #199, #103 ) ;
#158 = VERTEX_POINT ( 'NONE', #10 ) ;
#159 = DIRECTION ( 'NONE',  ( -3.491481338843133355E-15, 1.224646799147353207E-16, -1.000000000000000000 ) ) ;
#160 = CC_DESIGN_APPROVAL ( #71, ( #27 ) ) ;
#161 = DIRECTION ( 'NONE',  ( 0.0000000000000000000, 0.0000000000000000000, 1.000000000000000000 ) ) ;
#162 = CALENDAR_DATE ( 2021, 6, 10 ) ;
#163 = EDGE_LOOP ( 'NONE', ( #78 ) ) ;
#164 = CIRCLE ( 'NONE', #157, 0.8499999999999999778 ) ;
#165 = CLOSED_SHELL ( 'NONE', ( #108, #138, #202 ) ) ;
#166 = ADVANCED_FACE ( 'NONE', ( #40 ), #106, .F. ) ;
#167 = EDGE_CURVE ( 'NONE', #72, #72, #92, .T. ) ;
#168 = CARTESIAN_POINT ( 'NONE',  ( 0.0000000000000000000, 0.0000000000000000000, 0.0000000000000000000 ) ) ;
#169 = CARTESIAN_POINT ( 'NONE',  ( 5.586370142149013368E-14, 6.373979076312845569E-33, 16.00000000000000000 ) ) ;
#170 = CYLINDRICAL_SURFACE ( 'NONE', #121, 0.8499999999999985345 ) ;
#171 = ADVANCED_BREP_SHAPE_REPRESENTATION ( '113', ( #154, #82, #42 ), #88 ) ;
#172 = CONICAL_SURFACE ( 'NONE', #187, 0.8499999999999953149, 1.134464013796309123 ) ;
#173 = AXIS2_PLACEMENT_3D ( 'NONE', #169, #201, #127 ) ;
#174 = PERSON_AND_ORGANIZATION ( #84, #137 ) ;
#175 = EDGE_LOOP ( 'NONE', ( #2 ) ) ;
#176 = COORDINATED_UNIVERSAL_TIME_OFFSET ( 1, 0, .AHEAD. ) ;
#177 = DATE_AND_TIME ( #64, #109 ) ;
#178 = CONICAL_SURFACE ( 'NONE', #179, 0.6500000000000000222, 0.7853981633974512766 ) ;
#179 = AXIS2_PLACEMENT_3D ( 'NONE', #139, #197, #26 ) ;
#180 = CARTESIAN_POINT ( 'NONE',  ( 1.383888813616657961E-15, -4.854028538308082736E-17, 0.3963615094317518017 ) ) ;
#181 = DIRECTION ( 'NONE',  ( 4.275831445896958607E-31, 1.000000000000000000, 1.224646799147352961E-16 ) ) ;
#182 = CC_DESIGN_DATE_AND_TIME_ASSIGNMENT ( #35, #98, ( #18 ) ) ;
#183 = DIRECTION ( 'NONE',  ( -3.491481338843133355E-15, 1.224646799147353207E-16, -1.000000000000000000 ) ) ;
#184 = DIRECTION ( 'NONE',  ( -3.491481338843133355E-15, 1.224646799147353207E-16, -1.000000000000000000 ) ) ;
#185 = VERTEX_POINT ( 'NONE', #25 ) ;
#186 = CC_DESIGN_DATE_AND_TIME_ASSIGNMENT ( #136, #115, ( #27 ) ) ;
#187 = AXIS2_PLACEMENT_3D ( 'NONE', #153, #73, #8 ) ;
#188 = EDGE_LOOP ( 'NONE', ( #114 ) ) ;
#189 = APPROVAL_ROLE ( '' ) ;
#190 = APPROVAL ( #15, 'UNSPECIFIED' ) ;
#191 = EDGE_LOOP ( 'NONE', ( #34 ) ) ;
#192 = APPROVAL_STATUS ( 'not_yet_approved' ) ;
#193 = PERSON_AND_ORGANIZATION ( #84, #137 ) ;
#194 = EDGE_CURVE ( 'NONE', #107, #107, #54, .T. ) ;
#195 = FACE_OUTER_BOUND ( 'NONE', #62, .T. ) ;
#196 = CC_DESIGN_APPROVAL ( #190, ( #149 ) ) ;
#197 = DIRECTION ( 'NONE',  ( -3.491481338843133355E-15, 1.224646799147353207E-16, -1.000000000000000000 ) ) ;
#198 = DIRECTION ( 'NONE',  ( 0.0000000000000000000, 1.000000000000000000, 0.0000000000000000000 ) ) ;
#199 = DIRECTION ( 'NONE',  ( -3.491481338843133355E-15, 1.224646799147353207E-16, -1.000000000000000000 ) ) ;
#200 = APPROVAL_PERSON_ORGANIZATION ( #63, #49, #51 ) ;
#201 = DIRECTION ( 'NONE',  ( 3.491481338843133355E-15, -1.224646799147353207E-16, 1.000000000000000000 ) ) ;
#202 = ADVANCED_FACE ( 'NONE', ( #43 ), #41, .T. ) ;
#203 = CIRCLE ( 'NONE', #100, 0.8499999999999972022 ) ;
ENDSEC;
END-ISO-10303-21;
