ISO-10303-21;
HEADER;
FILE_DESCRIPTION (( 'STEP AP203' ),
    '1' );
FILE_NAME ('112.step',
    '2021-10-06T11:25:49',
    ( '' ),
    ( '' ),
    'SwSTEP 2.0',
    'SolidWorks 2019',
    '' );
FILE_SCHEMA (( 'CONFIG_CONTROL_DESIGN' ));
ENDSEC;

DATA;
#1 = DIRECTION ( 'NONE',  ( 3.491481338843133355E-15, -1.224646799147353207E-16, 1.000000000000000000 ) ) ;
#2 = CARTESIAN_POINT ( 'NONE',  ( 0.0000000000000000000, 0.0000000000000000000, 0.0000000000000000000 ) ) ;
#3 = FACE_OUTER_BOUND ( 'NONE', #164, .T. ) ;
#4 = COORDINATED_UNIVERSAL_TIME_OFFSET ( 1, 0, .AHEAD. ) ;
#5 = ORIENTED_EDGE ( 'NONE', *, *, #14, .F. ) ;
#6 = SECURITY_CLASSIFICATION_LEVEL ( 'unclassified' ) ;
#7 = ORIENTED_EDGE ( 'NONE', *, *, #115, .F. ) ;
#8 = DATE_AND_TIME ( #76, #158 ) ;
#9 = ORIENTED_EDGE ( 'NONE', *, *, #115, .T. ) ;
#10 = PERSON_AND_ORGANIZATION ( #32, #156 ) ;
#11 = AXIS2_PLACEMENT_3D ( 'NONE', #77, #179, #63 ) ;
#12 = CYLINDRICAL_SURFACE ( 'NONE', #145, 0.7999999999999963807 ) ;
#13 = LOCAL_TIME ( 13, 25, 49.00000000000000000, #90 ) ;
#14 = EDGE_CURVE ( 'NONE', #119, #119, #80, .T. ) ;
#15 = FACE_OUTER_BOUND ( 'NONE', #95, .T. ) ;
#16 = PRODUCT_RELATED_PRODUCT_CATEGORY ( 'detail', '', ( #173 ) ) ;
#17 = CARTESIAN_POINT ( 'NONE',  ( 0.0000000000000000000, 0.0000000000000000000, 0.0000000000000000000 ) ) ;
#18 = MECHANICAL_CONTEXT ( 'NONE', #110, 'mechanical' ) ;
#19 = PRODUCT_DEFINITION ( 'UNKNOWN', '', #163, #99 ) ;
#20 = ADVANCED_FACE ( 'NONE', ( #91 ), #61, .F. ) ;
#21 = DATE_AND_TIME ( #34, #13 ) ;
#22 = PERSON_AND_ORGANIZATION ( #32, #156 ) ;
#23 = PERSON_AND_ORGANIZATION_ROLE ( 'creator' ) ;
#24 = APPROVAL_DATE_TIME ( #78, #192 ) ;
#25 = DIRECTION ( 'NONE',  ( 0.0000000000000000000, 1.000000000000000000, 0.0000000000000000000 ) ) ;
#26 = CARTESIAN_POINT ( 'NONE',  ( 5.586370142149013368E-14, 5.999039130647381851E-33, 16.00000000000000000 ) ) ;
#27 = DIRECTION ( 'NONE',  ( 0.0000000000000000000, 1.000000000000000000, 0.0000000000000000000 ) ) ;
#28 = PERSON_AND_ORGANIZATION ( #32, #156 ) ;
#29 = APPROVAL ( #162, 'UNSPECIFIED' ) ;
#30 = EDGE_CURVE ( 'NONE', #188, #188, #31, .T. ) ;
#31 = CIRCLE ( 'NONE', #57, 0.7999999999999973799 ) ;
#32 = PERSON ( 'UNSPECIFIED', 'UNSPECIFIED', 'UNSPECIFIED', ('UNSPECIFIED'), ('UNSPECIFIED'), ('UNSPECIFIED') ) ;
#33 = EDGE_LOOP ( 'NONE', ( #50 ) ) ;
#34 = CALENDAR_DATE ( 2021, 6, 10 ) ;
#35 = PERSON_AND_ORGANIZATION_ROLE ( 'creator' ) ;
#36 = ORIENTED_EDGE ( 'NONE', *, *, #30, .F. ) ;
#37 = AXIS2_PLACEMENT_3D ( 'NONE', #153, #1, #182 ) ;
#38 = APPROVAL_DATE_TIME ( #8, #29 ) ;
#39 = PLANE ( 'NONE',  #37 ) ;
#40 = CIRCLE ( 'NONE', #155, 0.8000000000000000444 ) ;
#41 = VERTEX_POINT ( 'NONE', #85 ) ;
#42 = ADVANCED_FACE ( 'NONE', ( #3 ), #123, .T. ) ;
#43 = DIRECTION ( 'NONE',  ( 4.275831445896958607E-31, 1.000000000000000000, 1.224646799147353207E-16 ) ) ;
#44 = CARTESIAN_POINT ( 'NONE',  ( 0.0000000000000000000, 0.0000000000000000000, 0.0000000000000000000 ) ) ;
#45 = CC_DESIGN_PERSON_AND_ORGANIZATION_ASSIGNMENT ( #72, #154, ( #173 ) ) ;
#46 = APPROVAL_STATUS ( 'not_yet_approved' ) ;
#47 = DIRECTION ( 'NONE',  ( -4.814824860968117659E-31, -1.000000000000000000, -1.355252715606888431E-16 ) ) ;
#48 = DATE_AND_TIME ( #149, #49 ) ;
#49 = LOCAL_TIME ( 13, 25, 49.00000000000000000, #127 ) ;
#50 = ORIENTED_EDGE ( 'NONE', *, *, #88, .T. ) ;
#51 = EDGE_LOOP ( 'NONE', ( #7 ) ) ;
#52 = DIRECTION ( 'NONE',  ( -3.491481338843133355E-15, 1.224646799147353207E-16, -1.000000000000000000 ) ) ;
#53 = PERSON_AND_ORGANIZATION ( #32, #156 ) ;
#54 = CARTESIAN_POINT ( 'NONE',  ( 1.302483589286266421E-15, 0.7999999999999953815, 0.3730461265240017088 ) ) ;
#55 = DIRECTION ( 'NONE',  ( -3.491481338843133355E-15, 1.224646799147353207E-16, -1.000000000000000000 ) ) ;
#56 = DIRECTION ( 'NONE',  ( 4.275831445896958607E-31, 1.000000000000000000, 1.224646799147353207E-16 ) ) ;
#57 = AXIS2_PLACEMENT_3D ( 'NONE', #113, #96, #25 ) ;
#58 = DIRECTION ( 'NONE',  ( 0.0000000000000000000, 0.0000000000000000000, 1.000000000000000000 ) ) ;
#59 = EDGE_LOOP ( 'NONE', ( #94 ) ) ;
#60 = AXIS2_PLACEMENT_3D ( 'NONE', #17, #71, #43 ) ;
#61 = PLANE ( 'NONE',  #191 ) ;
#62 = DATE_TIME_ROLE ( 'creation_date' ) ;
#63 = DIRECTION ( 'NONE',  ( 4.814824860968117659E-31, 1.000000000000000000, 1.355252715606888431E-16 ) ) ;
#64 = EDGE_LOOP ( 'NONE', ( #36 ) ) ;
#65 = PERSON_AND_ORGANIZATION_ROLE ( 'classification_officer' ) ;
#66 = APPROVAL_PERSON_ORGANIZATION ( #195, #29, #79 ) ;
#67 = DIRECTION ( 'NONE',  ( -3.491481338843133355E-15, 1.224646799147353207E-16, -1.000000000000000000 ) ) ;
#68 = APPROVAL ( #46, 'UNSPECIFIED' ) ;
#69 =( NAMED_UNIT ( * ) PLANE_ANGLE_UNIT ( ) SI_UNIT ( $, .RADIAN. ) );
#70 = LOCAL_TIME ( 13, 25, 49.00000000000000000, #130 ) ;
#71 = DIRECTION ( 'NONE',  ( -3.491481338843133355E-15, 1.224646799147353207E-16, -1.000000000000000000 ) ) ;
#72 = PERSON_AND_ORGANIZATION ( #32, #156 ) ;
#73 = AXIS2_PLACEMENT_3D ( 'NONE', #26, #102, #98 ) ;
#74 = CC_DESIGN_APPROVAL ( #29, ( #125 ) ) ;
#75 = EDGE_CURVE ( 'NONE', #184, #184, #40, .T. ) ;
#76 = CALENDAR_DATE ( 2021, 6, 10 ) ;
#77 = CARTESIAN_POINT ( 'NONE',  ( 1.302483589286266026E-15, -4.568497447819370682E-17, 0.3730461265240015978 ) ) ;
#78 = DATE_AND_TIME ( #147, #70 ) ;
#79 = APPROVAL_ROLE ( '' ) ;
#80 = CIRCLE ( 'NONE', #11, 0.7999999999999953815 ) ;
#81 = CC_DESIGN_SECURITY_CLASSIFICATION ( #125, ( #163 ) ) ;
#82 = ORIENTED_EDGE ( 'NONE', *, *, #30, .T. ) ;
#83 = CARTESIAN_POINT ( 'NONE',  ( 1.326762908760390423E-13, -4.653657836759941941E-15, 38.00000000000000000 ) ) ;
#84 = FACE_OUTER_BOUND ( 'NONE', #51, .T. ) ;
#85 = CARTESIAN_POINT ( 'NONE',  ( 1.326762908760390423E-13, 0.5999999999999954259, 38.00000000000000000 ) ) ;
#86 = PLANE ( 'NONE',  #73 ) ;
#87 = APPROVAL_ROLE ( '' ) ;
#88 = EDGE_CURVE ( 'NONE', #41, #41, #174, .T. ) ;
#89 = CC_DESIGN_APPROVAL ( #68, ( #19 ) ) ;
#90 = COORDINATED_UNIVERSAL_TIME_OFFSET ( 1, 0, .AHEAD. ) ;
#91 = FACE_OUTER_BOUND ( 'NONE', #111, .T. ) ;
#92 = CC_DESIGN_PERSON_AND_ORGANIZATION_ASSIGNMENT ( #22, #23, ( #19 ) ) ;
#93 = APPROVAL_STATUS ( 'not_yet_approved' ) ;
#94 = ORIENTED_EDGE ( 'NONE', *, *, #75, .T. ) ;
#95 = EDGE_LOOP ( 'NONE', ( #196 ) ) ;
#96 = DIRECTION ( 'NONE',  ( -3.491481338843133355E-15, 1.224646799147353207E-16, -1.000000000000000000 ) ) ;
#97 = FACE_OUTER_BOUND ( 'NONE', #59, .T. ) ;
#98 = DIRECTION ( 'NONE',  ( -4.275831445896958607E-31, -1.000000000000000000, -1.224646799147353207E-16 ) ) ;
#99 = DESIGN_CONTEXT ( 'detailed design', #124, 'design' ) ;
#100 = CARTESIAN_POINT ( 'NONE',  ( 1.319779946082704535E-13, 0.7999999999999953815, 37.79999999999999716 ) ) ;
#101 = CARTESIAN_POINT ( 'NONE',  ( 5.586370142149013368E-14, -1.959434878635765131E-15, 16.00000000000000000 ) ) ;
#102 = DIRECTION ( 'NONE',  ( 3.491481338843133355E-15, -1.224646799147353207E-16, 1.000000000000000000 ) ) ;
#103 = APPLICATION_PROTOCOL_DEFINITION ( 'international standard', 'config_control_design', 1994, #124 ) ;
#104 = ADVANCED_FACE ( 'NONE', ( #165 ), #86, .F. ) ;
#105 = CC_DESIGN_PERSON_AND_ORGANIZATION_ASSIGNMENT ( #143, #35, ( #163 ) ) ;
#106 = AXIS2_PLACEMENT_3D ( 'NONE', #83, #117, #27 ) ;
#107 = CARTESIAN_POINT ( 'NONE',  ( 1.319779946082704535E-13, -4.629164900776995227E-15, 37.79999999999999716 ) ) ;
#108 = APPROVAL_PERSON_ORGANIZATION ( #180, #192, #146 ) ;
#109 = ORIENTED_EDGE ( 'NONE', *, *, #14, .T. ) ;
#110 = APPLICATION_CONTEXT ( 'configuration controlled 3d designs of mechanical parts and assemblies' ) ;
#111 = EDGE_LOOP ( 'NONE', ( #159 ) ) ;
#112 = SHAPE_DEFINITION_REPRESENTATION ( #157, #116 ) ;
#113 = CARTESIAN_POINT ( 'NONE',  ( 5.586370142149013368E-14, -1.959434878635765131E-15, 16.00000000000000000 ) ) ;
#114 = DATE_TIME_ROLE ( 'classification_date' ) ;
#115 = EDGE_CURVE ( 'NONE', #202, #202, #194, .T. ) ;
#116 = ADVANCED_BREP_SHAPE_REPRESENTATION ( '112', ( #142, #141, #136 ), #169 ) ;
#117 = DIRECTION ( 'NONE',  ( -3.491481338843133355E-15, 1.224646799147353207E-16, -1.000000000000000000 ) ) ;
#118 = AXIS2_PLACEMENT_3D ( 'NONE', #101, #67, #185 ) ;
#119 = VERTEX_POINT ( 'NONE', #54 ) ;
#120 = FACE_OUTER_BOUND ( 'NONE', #64, .T. ) ;
#121 = DIRECTION ( 'NONE',  ( 0.0000000000000000000, 1.000000000000000000, 0.0000000000000000000 ) ) ;
#122 = CC_DESIGN_PERSON_AND_ORGANIZATION_ASSIGNMENT ( #10, #197, ( #163 ) ) ;
#123 = CONICAL_SURFACE ( 'NONE', #200, 0.7999999999999953815, 1.134464013796309123 ) ;
#124 = APPLICATION_CONTEXT ( 'configuration controlled 3d designs of mechanical parts and assemblies' ) ;
#125 = SECURITY_CLASSIFICATION ( '', '', #6 ) ;
#126 = CARTESIAN_POINT ( 'NONE',  ( 1.302483589286266026E-15, -4.568497447819370682E-17, 0.3730461265240015978 ) ) ;
#127 = COORDINATED_UNIVERSAL_TIME_OFFSET ( 1, 0, .AHEAD. ) ;
#128 = CARTESIAN_POINT ( 'NONE',  ( 1.326762908760390423E-13, 4.499279347985503717E-33, 38.00000000000000000 ) ) ;
#129 = DIRECTION ( 'NONE',  ( 4.275831445896958607E-31, 1.000000000000000000, 1.224646799147353207E-16 ) ) ;
#130 = COORDINATED_UNIVERSAL_TIME_OFFSET ( 1, 0, .AHEAD. ) ;
#131 = EDGE_LOOP ( 'NONE', ( #5 ) ) ;
#132 = APPROVAL_DATE_TIME ( #21, #68 ) ;
#133 = CONICAL_SURFACE ( 'NONE', #201, 0.6000000000000000888, 0.7853981633974512766 ) ;
#134 = APPLICATION_PROTOCOL_DEFINITION ( 'international standard', 'config_control_design', 1994, #110 ) ;
#135 = FACE_OUTER_BOUND ( 'NONE', #131, .T. ) ;
#136 = AXIS2_PLACEMENT_3D ( 'NONE', #2, #58, #190 ) ;
#137 = DIRECTION ( 'NONE',  ( -3.491481338843133355E-15, 1.224646799147353207E-16, -1.000000000000000000 ) ) ;
#138 = UNCERTAINTY_MEASURE_WITH_UNIT (LENGTH_MEASURE( 1.000000000000000082E-05 ), #171, 'distance_accuracy_value', 'NONE');
#139 = DIRECTION ( 'NONE',  ( 0.0000000000000000000, 1.000000000000000000, 0.0000000000000000000 ) ) ;
#140 = LOCAL_TIME ( 13, 25, 49.00000000000000000, #4 ) ;
#141 = MANIFOLD_SOLID_BREP ( 'Corps-Déplacer/Copier1[2]', #189 ) ;
#142 = MANIFOLD_SOLID_BREP ( 'Corps-Déplacer/Copier1[1]', #150 ) ;
#143 = PERSON_AND_ORGANIZATION ( #32, #156 ) ;
#144 = EDGE_LOOP ( 'NONE', ( #9 ) ) ;
#145 = AXIS2_PLACEMENT_3D ( 'NONE', #44, #55, #56 ) ;
#146 = APPROVAL_ROLE ( '' ) ;
#147 = CALENDAR_DATE ( 2021, 6, 10 ) ;
#148 = ADVANCED_FACE ( 'NONE', ( #120 ), #39, .T. ) ;
#149 = CALENDAR_DATE ( 2021, 6, 10 ) ;
#150 = CLOSED_SHELL ( 'NONE', ( #104, #172, #187, #20 ) ) ;
#151 = FACE_BOUND ( 'NONE', #33, .T. ) ;
#152 = CARTESIAN_POINT ( 'NONE',  ( 1.326762908760390423E-13, -4.653657836759941941E-15, 38.00000000000000000 ) ) ;
#153 = CARTESIAN_POINT ( 'NONE',  ( 5.586370142149013368E-14, 5.999039130647381851E-33, 16.00000000000000000 ) ) ;
#154 = PERSON_AND_ORGANIZATION_ROLE ( 'design_owner' ) ;
#155 = AXIS2_PLACEMENT_3D ( 'NONE', #107, #177, #121 ) ;
#156 = ORGANIZATION ( 'UNSPECIFIED', 'UNSPECIFIED', '' ) ;
#157 = PRODUCT_DEFINITION_SHAPE ( 'NONE', 'NONE',  #19 ) ;
#158 = LOCAL_TIME ( 13, 25, 49.00000000000000000, #160 ) ;
#159 = ORIENTED_EDGE ( 'NONE', *, *, #88, .F. ) ;
#160 = COORDINATED_UNIVERSAL_TIME_OFFSET ( 1, 0, .AHEAD. ) ;
#161 = EDGE_LOOP ( 'NONE', ( #82 ) ) ;
#162 = APPROVAL_STATUS ( 'not_yet_approved' ) ;
#163 = PRODUCT_DEFINITION_FORMATION_WITH_SPECIFIED_SOURCE ( 'ANY', '', #173, .NOT_KNOWN. ) ;
#164 = EDGE_LOOP ( 'NONE', ( #109 ) ) ;
#165 = FACE_OUTER_BOUND ( 'NONE', #144, .T. ) ;
#166 = CC_DESIGN_APPROVAL ( #192, ( #163 ) ) ;
#167 = CARTESIAN_POINT ( 'NONE',  ( 5.586370142149013368E-14, 0.7999999999999953815, 16.00000000000000000 ) ) ;
#168 = CYLINDRICAL_SURFACE ( 'NONE', #60, 0.7999999999999986011 ) ;
#169 =( GEOMETRIC_REPRESENTATION_CONTEXT ( 3 ) GLOBAL_UNCERTAINTY_ASSIGNED_CONTEXT ( ( #138 ) ) GLOBAL_UNIT_ASSIGNED_CONTEXT ( ( #171, #69, #199 ) ) REPRESENTATION_CONTEXT ( 'NONE', 'WORKASPACE' ) );
#170 = CC_DESIGN_DATE_AND_TIME_ASSIGNMENT ( #48, #114, ( #125 ) ) ;
#171 =( LENGTH_UNIT ( ) NAMED_UNIT ( * ) SI_UNIT ( .MILLI., .METRE. ) );
#172 = ADVANCED_FACE ( 'NONE', ( #84, #97 ), #168, .T. ) ;
#173 = PRODUCT ( '112', '112', '', ( #18 ) ) ;
#174 = CIRCLE ( 'NONE', #106, 0.6000000000000000888 ) ;
#175 = CC_DESIGN_PERSON_AND_ORGANIZATION_ASSIGNMENT ( #53, #65, ( #125 ) ) ;
#176 = APPROVAL_PERSON_ORGANIZATION ( #28, #68, #87 ) ;
#177 = DIRECTION ( 'NONE',  ( -3.491481338843133355E-15, 1.224646799147353207E-16, -1.000000000000000000 ) ) ;
#178 = DATE_AND_TIME ( #181, #140 ) ;
#179 = DIRECTION ( 'NONE',  ( -3.491481338843133355E-15, 1.224646799147353207E-16, -1.000000000000000000 ) ) ;
#180 = PERSON_AND_ORGANIZATION ( #32, #156 ) ;
#181 = CALENDAR_DATE ( 2021, 6, 10 ) ;
#182 = DIRECTION ( 'NONE',  ( -4.275831445896958607E-31, -1.000000000000000000, -1.224646799147353207E-16 ) ) ;
#183 = CC_DESIGN_DATE_AND_TIME_ASSIGNMENT ( #178, #62, ( #19 ) ) ;
#184 = VERTEX_POINT ( 'NONE', #100 ) ;
#185 = DIRECTION ( 'NONE',  ( 0.0000000000000000000, 1.000000000000000000, 0.0000000000000000000 ) ) ;
#186 = CARTESIAN_POINT ( 'NONE',  ( 5.586370142149013368E-14, 0.7999999999999953815, 16.00000000000000000 ) ) ;
#187 = ADVANCED_FACE ( 'NONE', ( #15, #151 ), #133, .T. ) ;
#188 = VERTEX_POINT ( 'NONE', #167 ) ;
#189 = CLOSED_SHELL ( 'NONE', ( #42, #203, #148 ) ) ;
#190 = DIRECTION ( 'NONE',  ( 1.000000000000000000, 0.0000000000000000000, 0.0000000000000000000 ) ) ;
#191 = AXIS2_PLACEMENT_3D ( 'NONE', #128, #52, #129 ) ;
#192 = APPROVAL ( #93, 'UNSPECIFIED' ) ;
#193 = DIRECTION ( 'NONE',  ( 3.491481338843133355E-15, -1.224646799147353207E-16, 1.000000000000000000 ) ) ;
#194 = CIRCLE ( 'NONE', #118, 0.7999999999999973799 ) ;
#195 = PERSON_AND_ORGANIZATION ( #32, #156 ) ;
#196 = ORIENTED_EDGE ( 'NONE', *, *, #75, .F. ) ;
#197 = PERSON_AND_ORGANIZATION_ROLE ( 'design_supplier' ) ;
#198 = FACE_OUTER_BOUND ( 'NONE', #161, .T. ) ;
#199 =( NAMED_UNIT ( * ) SI_UNIT ( $, .STERADIAN. ) SOLID_ANGLE_UNIT ( ) );
#200 = AXIS2_PLACEMENT_3D ( 'NONE', #126, #193, #47 ) ;
#201 = AXIS2_PLACEMENT_3D ( 'NONE', #152, #137, #139 ) ;
#202 = VERTEX_POINT ( 'NONE', #186 ) ;
#203 = ADVANCED_FACE ( 'NONE', ( #135, #198 ), #12, .T. ) ;
ENDSEC;
END-ISO-10303-21;
