ISO-10303-21;
HEADER;
FILE_DESCRIPTION (( 'STEP AP203' ),
    '1' );
FILE_NAME ('111.step',
    '2021-10-06T11:25:48',
    ( '' ),
    ( '' ),
    'SwSTEP 2.0',
    'SolidWorks 2019',
    '' );
FILE_SCHEMA (( 'CONFIG_CONTROL_DESIGN' ));
ENDSEC;

DATA;
#1 = AXIS2_PLACEMENT_3D ( 'NONE', #162, #3, #141 ) ;
#2 = CARTESIAN_POINT ( 'NONE',  ( 1.326762908760390423E-13, -4.653657836759941941E-15, 38.00000000000000000 ) ) ;
#3 = DIRECTION ( 'NONE',  ( 3.491481338843133355E-15, -1.224646799147353207E-16, 1.000000000000000000 ) ) ;
#4 = DIRECTION ( 'NONE',  ( -3.491481338843133355E-15, 1.224646799147353207E-16, -1.000000000000000000 ) ) ;
#5 = CONICAL_SURFACE ( 'NONE', #156, 0.5500000000000000444, 0.7853981633974512766 ) ;
#6 = FACE_OUTER_BOUND ( 'NONE', #163, .T. ) ;
#7 = ADVANCED_FACE ( 'NONE', ( #84 ), #189, .F. ) ;
#8 = CLOSED_SHELL ( 'NONE', ( #32, #109, #100 ) ) ;
#9 = PERSON_AND_ORGANIZATION_ROLE ( 'design_owner' ) ;
#10 =( NAMED_UNIT ( * ) PLANE_ANGLE_UNIT ( ) SI_UNIT ( $, .RADIAN. ) );
#11 = COORDINATED_UNIVERSAL_TIME_OFFSET ( 1, 0, .AHEAD. ) ;
#12 = PRODUCT_DEFINITION ( 'UNKNOWN', '', #165, #129 ) ;
#13 = AXIS2_PLACEMENT_3D ( 'NONE', #67, #71, #57 ) ;
#14 = DATE_AND_TIME ( #101, #26 ) ;
#15 = CONICAL_SURFACE ( 'NONE', #173, 0.7499999999999953371, 1.134464013796309123 ) ;
#16 = ORIENTED_EDGE ( 'NONE', *, *, #134, .T. ) ;
#17 = CC_DESIGN_APPROVAL ( #56, ( #165 ) ) ;
#18 = ORIENTED_EDGE ( 'NONE', *, *, #45, .T. ) ;
#19 = EDGE_LOOP ( 'NONE', ( #171 ) ) ;
#20 = ADVANCED_FACE ( 'NONE', ( #6 ), #88, .F. ) ;
#21 = DIRECTION ( 'NONE',  ( -3.491481338843133355E-15, 1.224646799147353207E-16, -1.000000000000000000 ) ) ;
#22 = AXIS2_PLACEMENT_3D ( 'NONE', #140, #117, #138 ) ;
#23 = DIRECTION ( 'NONE',  ( -3.491481338843133355E-15, 1.224646799147353207E-16, -1.000000000000000000 ) ) ;
#24 = FACE_OUTER_BOUND ( 'NONE', #158, .T. ) ;
#25 = DATE_TIME_ROLE ( 'creation_date' ) ;
#26 = LOCAL_TIME ( 13, 25, 48.00000000000000000, #112 ) ;
#27 = DIRECTION ( 'NONE',  ( 1.000000000000000000, 0.0000000000000000000, 0.0000000000000000000 ) ) ;
#28 = CALENDAR_DATE ( 2021, 6, 10 ) ;
#29 = APPLICATION_PROTOCOL_DEFINITION ( 'international standard', 'config_control_design', 1994, #119 ) ;
#30 = AXIS2_PLACEMENT_3D ( 'NONE', #103, #143, #124 ) ;
#31 = CC_DESIGN_PERSON_AND_ORGANIZATION_ASSIGNMENT ( #50, #133, ( #125 ) ) ;
#32 = ADVANCED_FACE ( 'NONE', ( #85 ), #15, .T. ) ;
#33 = DIRECTION ( 'NONE',  ( 0.0000000000000000000, 1.000000000000000000, 0.0000000000000000000 ) ) ;
#34 = CIRCLE ( 'NONE', #190, 0.7499999999999973355 ) ;
#35 = EDGE_LOOP ( 'NONE', ( #82 ) ) ;
#36 = ADVANCED_FACE ( 'NONE', ( #90, #164 ), #151, .T. ) ;
#37 = DIRECTION ( 'NONE',  ( 3.491481338843133355E-15, -1.224646799147353207E-16, 1.000000000000000000 ) ) ;
#38 = ORIENTED_EDGE ( 'NONE', *, *, #150, .T. ) ;
#39 = AXIS2_PLACEMENT_3D ( 'NONE', #54, #21, #118 ) ;
#40 = PERSON_AND_ORGANIZATION ( #197, #73 ) ;
#41 = PERSON_AND_ORGANIZATION_ROLE ( 'creator' ) ;
#42 = LOCAL_TIME ( 13, 25, 48.00000000000000000, #11 ) ;
#43 = CC_DESIGN_PERSON_AND_ORGANIZATION_ASSIGNMENT ( #180, #41, ( #165 ) ) ;
#44 = DATE_AND_TIME ( #182, #69 ) ;
#45 = EDGE_CURVE ( 'NONE', #183, #183, #81, .T. ) ;
#46 = CIRCLE ( 'NONE', #13, 0.7499999999999953371 ) ;
#47 = APPROVAL_DATE_TIME ( #185, #145 ) ;
#48 = APPROVAL_PERSON_ORGANIZATION ( #153, #120, #108 ) ;
#49 = PRODUCT_RELATED_PRODUCT_CATEGORY ( 'detail', '', ( #203 ) ) ;
#50 = PERSON_AND_ORGANIZATION ( #197, #73 ) ;
#51 = DIRECTION ( 'NONE',  ( -3.491481338843133355E-15, 1.224646799147353207E-16, -1.000000000000000000 ) ) ;
#52 = DIRECTION ( 'NONE',  ( 0.0000000000000000000, 1.000000000000000000, 0.0000000000000000000 ) ) ;
#53 = AXIS2_PLACEMENT_3D ( 'NONE', #55, #177, #152 ) ;
#54 = CARTESIAN_POINT ( 'NONE',  ( 0.0000000000000000000, 0.0000000000000000000, 0.0000000000000000000 ) ) ;
#55 = CARTESIAN_POINT ( 'NONE',  ( 0.0000000000000000000, 0.0000000000000000000, 0.0000000000000000000 ) ) ;
#56 = APPROVAL ( #154, 'UNSPECIFIED' ) ;
#57 = DIRECTION ( 'NONE',  ( 5.135813185032661055E-31, 1.000000000000000000, 1.445602896647348284E-16 ) ) ;
#58 = APPROVAL_STATUS ( 'not_yet_approved' ) ;
#59 = DATE_AND_TIME ( #28, #42 ) ;
#60 = CARTESIAN_POINT ( 'NONE',  ( 1.319779946082704535E-13, 0.7499999999999953371, 37.79999999999999716 ) ) ;
#61 = PERSON_AND_ORGANIZATION ( #197, #73 ) ;
#62 = PERSON_AND_ORGANIZATION_ROLE ( 'creator' ) ;
#63 = EDGE_LOOP ( 'NONE', ( #114 ) ) ;
#64 = CALENDAR_DATE ( 2021, 6, 10 ) ;
#65 = DIRECTION ( 'NONE',  ( -3.491481338843133355E-15, 1.224646799147353207E-16, -1.000000000000000000 ) ) ;
#66 = CC_DESIGN_PERSON_AND_ORGANIZATION_ASSIGNMENT ( #146, #198, ( #165 ) ) ;
#67 = CARTESIAN_POINT ( 'NONE',  ( 1.221078364955873894E-15, -4.282966357330658628E-17, 0.3497307436162513938 ) ) ;
#68 = DIRECTION ( 'NONE',  ( 0.0000000000000000000, 1.000000000000000000, 0.0000000000000000000 ) ) ;
#69 = LOCAL_TIME ( 13, 25, 48.00000000000000000, #93 ) ;
#70 = FACE_OUTER_BOUND ( 'NONE', #35, .T. ) ;
#71 = DIRECTION ( 'NONE',  ( -3.491481338843133355E-15, 1.224646799147353207E-16, -1.000000000000000000 ) ) ;
#72 = VERTEX_POINT ( 'NONE', #192 ) ;
#73 = ORGANIZATION ( 'UNSPECIFIED', 'UNSPECIFIED', '' ) ;
#74 = CARTESIAN_POINT ( 'NONE',  ( 0.0000000000000000000, 0.0000000000000000000, 0.0000000000000000000 ) ) ;
#75 = MANIFOLD_SOLID_BREP ( 'Corps-Déplacer/Copier1[1]', #111 ) ;
#76 = APPLICATION_CONTEXT ( 'configuration controlled 3d designs of mechanical parts and assemblies' ) ;
#77 = VERTEX_POINT ( 'NONE', #110 ) ;
#78 = PERSON_AND_ORGANIZATION ( #197, #73 ) ;
#79 = SECURITY_CLASSIFICATION_LEVEL ( 'unclassified' ) ;
#80 = ORIENTED_EDGE ( 'NONE', *, *, #115, .F. ) ;
#81 = CIRCLE ( 'NONE', #87, 0.5500000000000000444 ) ;
#82 = ORIENTED_EDGE ( 'NONE', *, *, #134, .F. ) ;
#83 = AXIS2_PLACEMENT_3D ( 'NONE', #187, #51, #33 ) ;
#84 = FACE_OUTER_BOUND ( 'NONE', #19, .T. ) ;
#85 = FACE_OUTER_BOUND ( 'NONE', #99, .T. ) ;
#86 = CARTESIAN_POINT ( 'NONE',  ( 5.586370142149013368E-14, -1.959434878635765131E-15, 16.00000000000000000 ) ) ;
#87 = AXIS2_PLACEMENT_3D ( 'NONE', #188, #23, #68 ) ;
#88 = PLANE ( 'NONE',  #1 ) ;
#89 = EDGE_CURVE ( 'NONE', #77, #77, #34, .T. ) ;
#90 = FACE_OUTER_BOUND ( 'NONE', #63, .T. ) ;
#91 = CARTESIAN_POINT ( 'NONE',  ( 1.221078364955874289E-15, 0.7499999999999953371, 0.3497307436162515049 ) ) ;
#92 = CC_DESIGN_APPROVAL ( #120, ( #12 ) ) ;
#93 = COORDINATED_UNIVERSAL_TIME_OFFSET ( 1, 0, .AHEAD. ) ;
#94 = ADVANCED_BREP_SHAPE_REPRESENTATION ( '111', ( #75, #147, #161 ), #148 ) ;
#95 = MECHANICAL_CONTEXT ( 'NONE', #76, 'mechanical' ) ;
#96 = VERTEX_POINT ( 'NONE', #91 ) ;
#97 = CC_DESIGN_DATE_AND_TIME_ASSIGNMENT ( #59, #25, ( #12 ) ) ;
#98 = CIRCLE ( 'NONE', #30, 0.7500000000000000000 ) ;
#99 = EDGE_LOOP ( 'NONE', ( #166 ) ) ;
#100 = ADVANCED_FACE ( 'NONE', ( #70 ), #116, .T. ) ;
#101 = CALENDAR_DATE ( 2021, 6, 10 ) ;
#102 = LOCAL_TIME ( 13, 25, 48.00000000000000000, #131 ) ;
#103 = CARTESIAN_POINT ( 'NONE',  ( 1.319779946082704535E-13, -4.629164900776995227E-15, 37.79999999999999716 ) ) ;
#104 = DIRECTION ( 'NONE',  ( -3.491481338843133355E-15, 1.224646799147353207E-16, -1.000000000000000000 ) ) ;
#105 = CARTESIAN_POINT ( 'NONE',  ( 1.221078364955873894E-15, -4.282966357330658628E-17, 0.3497307436162513938 ) ) ;
#106 = CARTESIAN_POINT ( 'NONE',  ( 1.326762908760390423E-13, 4.124339402320038630E-33, 38.00000000000000000 ) ) ;
#107 = DIRECTION ( 'NONE',  ( 4.275831445896958607E-31, 1.000000000000000000, 1.224646799147353207E-16 ) ) ;
#108 = APPROVAL_ROLE ( '' ) ;
#109 = ADVANCED_FACE ( 'NONE', ( #24, #191 ), #174, .T. ) ;
#110 = CARTESIAN_POINT ( 'NONE',  ( 5.586370142149013368E-14, 0.7499999999999953371, 16.00000000000000000 ) ) ;
#111 = CLOSED_SHELL ( 'NONE', ( #20, #36, #127, #7 ) ) ;
#112 = COORDINATED_UNIVERSAL_TIME_OFFSET ( 1, 0, .AHEAD. ) ;
#113 = CIRCLE ( 'NONE', #83, 0.7499999999999973355 ) ;
#114 = ORIENTED_EDGE ( 'NONE', *, *, #89, .F. ) ;
#115 = EDGE_CURVE ( 'NONE', #96, #96, #46, .T. ) ;
#116 = PLANE ( 'NONE',  #22 ) ;
#117 = DIRECTION ( 'NONE',  ( 3.491481338843133355E-15, -1.224646799147353207E-16, 1.000000000000000000 ) ) ;
#118 = DIRECTION ( 'NONE',  ( 4.275831445896959482E-31, 1.000000000000000000, 1.224646799147353207E-16 ) ) ;
#119 = APPLICATION_CONTEXT ( 'configuration controlled 3d designs of mechanical parts and assemblies' ) ;
#120 = APPROVAL ( #58, 'UNSPECIFIED' ) ;
#121 = FACE_OUTER_BOUND ( 'NONE', #132, .T. ) ;
#122 = DIRECTION ( 'NONE',  ( 0.0000000000000000000, 0.0000000000000000000, 1.000000000000000000 ) ) ;
#123 = PERSON_AND_ORGANIZATION ( #197, #73 ) ;
#124 = DIRECTION ( 'NONE',  ( 0.0000000000000000000, 1.000000000000000000, 0.0000000000000000000 ) ) ;
#125 = SECURITY_CLASSIFICATION ( '', '', #79 ) ;
#126 = APPROVAL_ROLE ( '' ) ;
#127 = ADVANCED_FACE ( 'NONE', ( #121, #178 ), #5, .T. ) ;
#128 = VERTEX_POINT ( 'NONE', #60 ) ;
#129 = DESIGN_CONTEXT ( 'detailed design', #119, 'design' ) ;
#130 = ORIENTED_EDGE ( 'NONE', *, *, #150, .F. ) ;
#131 = COORDINATED_UNIVERSAL_TIME_OFFSET ( 1, 0, .AHEAD. ) ;
#132 = EDGE_LOOP ( 'NONE', ( #130 ) ) ;
#133 = PERSON_AND_ORGANIZATION_ROLE ( 'classification_officer' ) ;
#134 = EDGE_CURVE ( 'NONE', #72, #72, #113, .T. ) ;
#135 = AXIS2_PLACEMENT_3D ( 'NONE', #106, #104, #107 ) ;
#136 = DIRECTION ( 'NONE',  ( 0.0000000000000000000, 1.000000000000000000, 0.0000000000000000000 ) ) ;
#137 = EDGE_LOOP ( 'NONE', ( #16 ) ) ;
#138 = DIRECTION ( 'NONE',  ( -4.275831445896958607E-31, -1.000000000000000000, -1.224646799147353207E-16 ) ) ;
#139 = LOCAL_TIME ( 13, 25, 48.00000000000000000, #155 ) ;
#140 = CARTESIAN_POINT ( 'NONE',  ( 5.586370142149013368E-14, 5.624099184981917449E-33, 16.00000000000000000 ) ) ;
#141 = DIRECTION ( 'NONE',  ( -4.275831445896958607E-31, -1.000000000000000000, -1.224646799147353207E-16 ) ) ;
#142 =( LENGTH_UNIT ( ) NAMED_UNIT ( * ) SI_UNIT ( .MILLI., .METRE. ) );
#143 = DIRECTION ( 'NONE',  ( -3.491481338843133355E-15, 1.224646799147353207E-16, -1.000000000000000000 ) ) ;
#144 = DATE_AND_TIME ( #167, #139 ) ;
#145 = APPROVAL ( #184, 'UNSPECIFIED' ) ;
#146 = PERSON_AND_ORGANIZATION ( #197, #73 ) ;
#147 = MANIFOLD_SOLID_BREP ( 'Corps-Déplacer/Copier1[2]', #8 ) ;
#148 =( GEOMETRIC_REPRESENTATION_CONTEXT ( 3 ) GLOBAL_UNCERTAINTY_ASSIGNED_CONTEXT ( ( #179 ) ) GLOBAL_UNIT_ASSIGNED_CONTEXT ( ( #142, #10, #168 ) ) REPRESENTATION_CONTEXT ( 'NONE', 'WORKASPACE' ) );
#149 = ORIENTED_EDGE ( 'NONE', *, *, #89, .T. ) ;
#150 = EDGE_CURVE ( 'NONE', #128, #128, #98, .T. ) ;
#151 = CYLINDRICAL_SURFACE ( 'NONE', #39, 0.7499999999999986677 ) ;
#152 = DIRECTION ( 'NONE',  ( 4.275831445896958607E-31, 1.000000000000000000, 1.224646799147353207E-16 ) ) ;
#153 = PERSON_AND_ORGANIZATION ( #197, #73 ) ;
#154 = APPROVAL_STATUS ( 'not_yet_approved' ) ;
#155 = COORDINATED_UNIVERSAL_TIME_OFFSET ( 1, 0, .AHEAD. ) ;
#156 = AXIS2_PLACEMENT_3D ( 'NONE', #2, #65, #136 ) ;
#157 = DATE_TIME_ROLE ( 'classification_date' ) ;
#158 = EDGE_LOOP ( 'NONE', ( #80 ) ) ;
#159 = APPROVAL_PERSON_ORGANIZATION ( #123, #56, #126 ) ;
#160 = EDGE_LOOP ( 'NONE', ( #18 ) ) ;
#161 = AXIS2_PLACEMENT_3D ( 'NONE', #74, #122, #27 ) ;
#162 = CARTESIAN_POINT ( 'NONE',  ( 5.586370142149013368E-14, 5.624099184981917449E-33, 16.00000000000000000 ) ) ;
#163 = EDGE_LOOP ( 'NONE', ( #149 ) ) ;
#164 = FACE_OUTER_BOUND ( 'NONE', #175, .T. ) ;
#165 = PRODUCT_DEFINITION_FORMATION_WITH_SPECIFIED_SOURCE ( 'ANY', '', #203, .NOT_KNOWN. ) ;
#166 = ORIENTED_EDGE ( 'NONE', *, *, #115, .T. ) ;
#167 = CALENDAR_DATE ( 2021, 6, 10 ) ;
#168 =( NAMED_UNIT ( * ) SI_UNIT ( $, .STERADIAN. ) SOLID_ANGLE_UNIT ( ) );
#169 = APPROVAL_DATE_TIME ( #44, #56 ) ;
#170 = CC_DESIGN_SECURITY_CLASSIFICATION ( #125, ( #165 ) ) ;
#171 = ORIENTED_EDGE ( 'NONE', *, *, #45, .F. ) ;
#172 = APPROVAL_ROLE ( '' ) ;
#173 = AXIS2_PLACEMENT_3D ( 'NONE', #105, #37, #176 ) ;
#174 = CYLINDRICAL_SURFACE ( 'NONE', #53, 0.7499999999999963363 ) ;
#175 = EDGE_LOOP ( 'NONE', ( #38 ) ) ;
#176 = DIRECTION ( 'NONE',  ( -5.135813185032661055E-31, -1.000000000000000000, -1.445602896647348284E-16 ) ) ;
#177 = DIRECTION ( 'NONE',  ( -3.491481338843133355E-15, 1.224646799147353207E-16, -1.000000000000000000 ) ) ;
#178 = FACE_BOUND ( 'NONE', #160, .T. ) ;
#179 = UNCERTAINTY_MEASURE_WITH_UNIT (LENGTH_MEASURE( 1.000000000000000082E-05 ), #142, 'distance_accuracy_value', 'NONE');
#180 = PERSON_AND_ORGANIZATION ( #197, #73 ) ;
#181 = CC_DESIGN_APPROVAL ( #145, ( #125 ) ) ;
#182 = CALENDAR_DATE ( 2021, 6, 10 ) ;
#183 = VERTEX_POINT ( 'NONE', #195 ) ;
#184 = APPROVAL_STATUS ( 'not_yet_approved' ) ;
#185 = DATE_AND_TIME ( #64, #102 ) ;
#186 = CC_DESIGN_PERSON_AND_ORGANIZATION_ASSIGNMENT ( #40, #9, ( #203 ) ) ;
#187 = CARTESIAN_POINT ( 'NONE',  ( 5.586370142149013368E-14, -1.959434878635765131E-15, 16.00000000000000000 ) ) ;
#188 = CARTESIAN_POINT ( 'NONE',  ( 1.326762908760390423E-13, -4.653657836759941941E-15, 38.00000000000000000 ) ) ;
#189 = PLANE ( 'NONE',  #135 ) ;
#190 = AXIS2_PLACEMENT_3D ( 'NONE', #86, #4, #52 ) ;
#191 = FACE_OUTER_BOUND ( 'NONE', #137, .T. ) ;
#192 = CARTESIAN_POINT ( 'NONE',  ( 5.586370142149013368E-14, 0.7499999999999953371, 16.00000000000000000 ) ) ;
#193 = CC_DESIGN_DATE_AND_TIME_ASSIGNMENT ( #14, #157, ( #125 ) ) ;
#194 = APPLICATION_PROTOCOL_DEFINITION ( 'international standard', 'config_control_design', 1994, #76 ) ;
#195 = CARTESIAN_POINT ( 'NONE',  ( 1.326762908760390423E-13, 0.5499999999999953815, 38.00000000000000000 ) ) ;
#196 = APPROVAL_DATE_TIME ( #144, #120 ) ;
#197 = PERSON ( 'UNSPECIFIED', 'UNSPECIFIED', 'UNSPECIFIED', ('UNSPECIFIED'), ('UNSPECIFIED'), ('UNSPECIFIED') ) ;
#198 = PERSON_AND_ORGANIZATION_ROLE ( 'design_supplier' ) ;
#199 = PRODUCT_DEFINITION_SHAPE ( 'NONE', 'NONE',  #12 ) ;
#200 = APPROVAL_PERSON_ORGANIZATION ( #78, #145, #172 ) ;
#201 = CC_DESIGN_PERSON_AND_ORGANIZATION_ASSIGNMENT ( #61, #62, ( #12 ) ) ;
#202 = SHAPE_DEFINITION_REPRESENTATION ( #199, #94 ) ;
#203 = PRODUCT ( '111', '111', '', ( #95 ) ) ;
ENDSEC;
END-ISO-10303-21;
