ISO-10303-21;
HEADER;
FILE_DESCRIPTION (( 'STEP AP203' ),
    '1' );
FILE_NAME ('110.step',
    '2021-10-06T11:25:47',
    ( '' ),
    ( '' ),
    'SwSTEP 2.0',
    'SolidWorks 2019',
    '' );
FILE_SCHEMA (( 'CONFIG_CONTROL_DESIGN' ));
ENDSEC;

DATA;
#1 = DIRECTION ( 'NONE',  ( 0.0000000000000000000, 1.000000000000000000, 0.0000000000000000000 ) ) ;
#2 = CC_DESIGN_APPROVAL ( #95, ( #191 ) ) ;
#3 = PERSON_AND_ORGANIZATION ( #160, #116 ) ;
#4 = CALENDAR_DATE ( 2021, 6, 10 ) ;
#5 = MANIFOLD_SOLID_BREP ( 'Corps-Déplacer/Copier1[1]', #129 ) ;
#6 = AXIS2_PLACEMENT_3D ( 'NONE', #35, #203, #33 ) ;
#7 = EDGE_CURVE ( 'NONE', #47, #47, #190, .T. ) ;
#8 = EDGE_LOOP ( 'NONE', ( #10 ) ) ;
#9 = CARTESIAN_POINT ( 'NONE',  ( 1.326762908760390423E-13, -4.653657836759941941E-15, 38.00000000000000000 ) ) ;
#10 = ORIENTED_EDGE ( 'NONE', *, *, #92, .T. ) ;
#11 = APPROVAL ( #194, 'UNSPECIFIED' ) ;
#12 = DIRECTION ( 'NONE',  ( 3.491481338843133355E-15, -1.224646799147353207E-16, 1.000000000000000000 ) ) ;
#13 =( NAMED_UNIT ( * ) PLANE_ANGLE_UNIT ( ) SI_UNIT ( $, .RADIAN. ) );
#14 = AXIS2_PLACEMENT_3D ( 'NONE', #152, #111, #165 ) ;
#15 = VERTEX_POINT ( 'NONE', #85 ) ;
#16 = CARTESIAN_POINT ( 'NONE',  ( 1.319779946082704535E-13, 0.7249999999999953149, 37.79999999999999716 ) ) ;
#17 = FACE_BOUND ( 'NONE', #28, .T. ) ;
#18 = AXIS2_PLACEMENT_3D ( 'NONE', #158, #187, #159 ) ;
#19 = COORDINATED_UNIVERSAL_TIME_OFFSET ( 1, 0, .AHEAD. ) ;
#20 = SHAPE_DEFINITION_REPRESENTATION ( #59, #120 ) ;
#21 = CC_DESIGN_PERSON_AND_ORGANIZATION_ASSIGNMENT ( #41, #108, ( #112 ) ) ;
#22 = COORDINATED_UNIVERSAL_TIME_OFFSET ( 1, 0, .AHEAD. ) ;
#23 = LOCAL_TIME ( 13, 25, 47.00000000000000000, #24 ) ;
#24 = COORDINATED_UNIVERSAL_TIME_OFFSET ( 1, 0, .AHEAD. ) ;
#25 = DIRECTION ( 'NONE',  ( 1.000000000000000000, 0.0000000000000000000, 0.0000000000000000000 ) ) ;
#26 = CARTESIAN_POINT ( 'NONE',  ( 1.326762908760390423E-13, 3.936869429487305745E-33, 38.00000000000000000 ) ) ;
#27 = EDGE_LOOP ( 'NONE', ( #138 ) ) ;
#28 = EDGE_LOOP ( 'NONE', ( #124 ) ) ;
#29 = UNCERTAINTY_MEASURE_WITH_UNIT (LENGTH_MEASURE( 1.000000000000000082E-05 ), #82, 'distance_accuracy_value', 'NONE');
#30 = EDGE_LOOP ( 'NONE', ( #76 ) ) ;
#31 = CARTESIAN_POINT ( 'NONE',  ( 1.180375752790677730E-15, -4.140200812086301676E-17, 0.3380730521623762086 ) ) ;
#32 = CC_DESIGN_PERSON_AND_ORGANIZATION_ASSIGNMENT ( #132, #90, ( #78 ) ) ;
#33 = DIRECTION ( 'NONE',  ( 0.0000000000000000000, 1.000000000000000000, 0.0000000000000000000 ) ) ;
#34 = CC_DESIGN_DATE_AND_TIME_ASSIGNMENT ( #119, #109, ( #191 ) ) ;
#35 = CARTESIAN_POINT ( 'NONE',  ( 5.586370142149013368E-14, -1.959434878635765131E-15, 16.00000000000000000 ) ) ;
#36 = VERTEX_POINT ( 'NONE', #48 ) ;
#37 = PERSON_AND_ORGANIZATION_ROLE ( 'design_owner' ) ;
#38 = CLOSED_SHELL ( 'NONE', ( #40, #50, #155 ) ) ;
#39 = COORDINATED_UNIVERSAL_TIME_OFFSET ( 1, 0, .AHEAD. ) ;
#40 = ADVANCED_FACE ( 'NONE', ( #150 ), #121, .T. ) ;
#41 = PERSON_AND_ORGANIZATION ( #160, #116 ) ;
#42 = DIRECTION ( 'NONE',  ( 0.0000000000000000000, 0.0000000000000000000, 1.000000000000000000 ) ) ;
#43 = DIRECTION ( 'NONE',  ( -5.312910191413098851E-31, -1.000000000000000000, -1.495451272393808910E-16 ) ) ;
#44 = EDGE_CURVE ( 'NONE', #51, #51, #180, .T. ) ;
#45 = ADVANCED_FACE ( 'NONE', ( #97 ), #75, .F. ) ;
#46 = FACE_OUTER_BOUND ( 'NONE', #151, .T. ) ;
#47 = VERTEX_POINT ( 'NONE', #175 ) ;
#48 = CARTESIAN_POINT ( 'NONE',  ( 1.180375752790678124E-15, 0.7249999999999953149, 0.3380730521623763196 ) ) ;
#49 = LOCAL_TIME ( 13, 25, 47.00000000000000000, #19 ) ;
#50 = ADVANCED_FACE ( 'NONE', ( #135, #167 ), #86, .T. ) ;
#51 = VERTEX_POINT ( 'NONE', #16 ) ;
#52 = PERSON_AND_ORGANIZATION ( #160, #116 ) ;
#53 = AXIS2_PLACEMENT_3D ( 'NONE', #9, #125, #196 ) ;
#54 = APPROVAL_PERSON_ORGANIZATION ( #71, #186, #192 ) ;
#55 = PERSON_AND_ORGANIZATION_ROLE ( 'classification_officer' ) ;
#56 = PRODUCT_RELATED_PRODUCT_CATEGORY ( 'detail', '', ( #154 ) ) ;
#57 = DATE_AND_TIME ( #164, #140 ) ;
#58 = APPLICATION_CONTEXT ( 'configuration controlled 3d designs of mechanical parts and assemblies' ) ;
#59 = PRODUCT_DEFINITION_SHAPE ( 'NONE', 'NONE',  #112 ) ;
#60 = ORIENTED_EDGE ( 'NONE', *, *, #92, .F. ) ;
#61 = AXIS2_PLACEMENT_3D ( 'NONE', #67, #142, #1 ) ;
#62 =( GEOMETRIC_REPRESENTATION_CONTEXT ( 3 ) GLOBAL_UNCERTAINTY_ASSIGNED_CONTEXT ( ( #29 ) ) GLOBAL_UNIT_ASSIGNED_CONTEXT ( ( #82, #13, #65 ) ) REPRESENTATION_CONTEXT ( 'NONE', 'WORKASPACE' ) );
#63 = ORIENTED_EDGE ( 'NONE', *, *, #44, .F. ) ;
#64 = CARTESIAN_POINT ( 'NONE',  ( 0.0000000000000000000, 0.0000000000000000000, 0.0000000000000000000 ) ) ;
#65 =( NAMED_UNIT ( * ) SI_UNIT ( $, .STERADIAN. ) SOLID_ANGLE_UNIT ( ) );
#66 = DIRECTION ( 'NONE',  ( -4.275831445896958607E-31, -1.000000000000000000, -1.224646799147353207E-16 ) ) ;
#67 = CARTESIAN_POINT ( 'NONE',  ( 5.586370142149013368E-14, -1.959434878635765131E-15, 16.00000000000000000 ) ) ;
#68 = COORDINATED_UNIVERSAL_TIME_OFFSET ( 1, 0, .AHEAD. ) ;
#69 = CC_DESIGN_PERSON_AND_ORGANIZATION_ASSIGNMENT ( #73, #88, ( #78 ) ) ;
#70 = PERSON_AND_ORGANIZATION ( #160, #116 ) ;
#71 = PERSON_AND_ORGANIZATION ( #160, #116 ) ;
#72 = APPROVAL_DATE_TIME ( #57, #186 ) ;
#73 = PERSON_AND_ORGANIZATION ( #160, #116 ) ;
#74 = CC_DESIGN_APPROVAL ( #11, ( #112 ) ) ;
#75 = PLANE ( 'NONE',  #149 ) ;
#76 = ORIENTED_EDGE ( 'NONE', *, *, #202, .T. ) ;
#77 = DIRECTION ( 'NONE',  ( 4.275831445896958607E-31, 1.000000000000000000, 1.224646799147353207E-16 ) ) ;
#78 = PRODUCT_DEFINITION_FORMATION_WITH_SPECIFIED_SOURCE ( 'ANY', '', #154, .NOT_KNOWN. ) ;
#79 = EDGE_LOOP ( 'NONE', ( #63 ) ) ;
#80 = MANIFOLD_SOLID_BREP ( 'Corps-Déplacer/Copier1[2]', #38 ) ;
#81 = DESIGN_CONTEXT ( 'detailed design', #58, 'design' ) ;
#82 =( LENGTH_UNIT ( ) NAMED_UNIT ( * ) SI_UNIT ( .MILLI., .METRE. ) );
#83 = CARTESIAN_POINT ( 'NONE',  ( 0.0000000000000000000, 0.0000000000000000000, 0.0000000000000000000 ) ) ;
#84 = APPLICATION_PROTOCOL_DEFINITION ( 'international standard', 'config_control_design', 1994, #89 ) ;
#85 = CARTESIAN_POINT ( 'NONE',  ( 5.586370142149013368E-14, 0.7249999999999953149, 16.00000000000000000 ) ) ;
#86 = CYLINDRICAL_SURFACE ( 'NONE', #148, 0.7249999999999963141 ) ;
#87 = CC_DESIGN_APPROVAL ( #186, ( #78 ) ) ;
#88 = PERSON_AND_ORGANIZATION_ROLE ( 'creator' ) ;
#89 = APPLICATION_CONTEXT ( 'configuration controlled 3d designs of mechanical parts and assemblies' ) ;
#90 = PERSON_AND_ORGANIZATION_ROLE ( 'design_supplier' ) ;
#91 = DATE_AND_TIME ( #177, #157 ) ;
#92 = EDGE_CURVE ( 'NONE', #15, #15, #102, .T. ) ;
#93 = MECHANICAL_CONTEXT ( 'NONE', #89, 'mechanical' ) ;
#94 = EDGE_LOOP ( 'NONE', ( #198 ) ) ;
#95 = APPROVAL ( #179, 'UNSPECIFIED' ) ;
#96 = EDGE_LOOP ( 'NONE', ( #127 ) ) ;
#97 = FACE_OUTER_BOUND ( 'NONE', #168, .T. ) ;
#98 = CC_DESIGN_PERSON_AND_ORGANIZATION_ASSIGNMENT ( #3, #37, ( #154 ) ) ;
#99 = LOCAL_TIME ( 13, 25, 47.00000000000000000, #68 ) ;
#100 = FACE_OUTER_BOUND ( 'NONE', #134, .T. ) ;
#101 = EDGE_CURVE ( 'NONE', #171, #171, #146, .T. ) ;
#102 = CIRCLE ( 'NONE', #6, 0.7249999999999972022 ) ;
#103 = AXIS2_PLACEMENT_3D ( 'NONE', #174, #42, #25 ) ;
#104 = PLANE ( 'NONE',  #201 ) ;
#105 = FACE_OUTER_BOUND ( 'NONE', #79, .T. ) ;
#106 = CALENDAR_DATE ( 2021, 6, 10 ) ;
#107 = SECURITY_CLASSIFICATION_LEVEL ( 'unclassified' ) ;
#108 = PERSON_AND_ORGANIZATION_ROLE ( 'creator' ) ;
#109 = DATE_TIME_ROLE ( 'classification_date' ) ;
#110 = APPROVAL_DATE_TIME ( #178, #11 ) ;
#111 = DIRECTION ( 'NONE',  ( -3.491481338843133355E-15, 1.224646799147353207E-16, -1.000000000000000000 ) ) ;
#112 = PRODUCT_DEFINITION ( 'UNKNOWN', '', #78, #81 ) ;
#113 = ORIENTED_EDGE ( 'NONE', *, *, #7, .F. ) ;
#114 = ORIENTED_EDGE ( 'NONE', *, *, #101, .F. ) ;
#115 = CYLINDRICAL_SURFACE ( 'NONE', #197, 0.7249999999999986455 ) ;
#116 = ORGANIZATION ( 'UNSPECIFIED', 'UNSPECIFIED', '' ) ;
#117 = ADVANCED_FACE ( 'NONE', ( #105, #17 ), #137, .T. ) ;
#118 = CARTESIAN_POINT ( 'NONE',  ( 5.586370142149013368E-14, 5.436629212149184564E-33, 16.00000000000000000 ) ) ;
#119 = DATE_AND_TIME ( #106, #23 ) ;
#120 = ADVANCED_BREP_SHAPE_REPRESENTATION ( '110', ( #5, #80, #103 ), #62 ) ;
#121 = CONICAL_SURFACE ( 'NONE', #166, 0.7249999999999953149, 1.134464013796309345 ) ;
#122 = APPLICATION_PROTOCOL_DEFINITION ( 'international standard', 'config_control_design', 1994, #58 ) ;
#123 = DIRECTION ( 'NONE',  ( 3.491481338843133355E-15, -1.224646799147353207E-16, 1.000000000000000000 ) ) ;
#124 = ORIENTED_EDGE ( 'NONE', *, *, #7, .T. ) ;
#125 = DIRECTION ( 'NONE',  ( -3.491481338843133355E-15, 1.224646799147353207E-16, -1.000000000000000000 ) ) ;
#126 = ADVANCED_FACE ( 'NONE', ( #100, #139 ), #115, .T. ) ;
#127 = ORIENTED_EDGE ( 'NONE', *, *, #44, .T. ) ;
#128 = DIRECTION ( 'NONE',  ( -3.491481338843133355E-15, 1.224646799147353207E-16, -1.000000000000000000 ) ) ;
#129 = CLOSED_SHELL ( 'NONE', ( #145, #126, #117, #45 ) ) ;
#130 = DIRECTION ( 'NONE',  ( -3.491481338843133355E-15, 1.224646799147353207E-16, -1.000000000000000000 ) ) ;
#131 = DIRECTION ( 'NONE',  ( -4.275831445896958607E-31, -1.000000000000000000, -1.224646799147353207E-16 ) ) ;
#132 = PERSON_AND_ORGANIZATION ( #160, #116 ) ;
#133 = DATE_AND_TIME ( #144, #49 ) ;
#134 = EDGE_LOOP ( 'NONE', ( #60 ) ) ;
#135 = FACE_OUTER_BOUND ( 'NONE', #94, .T. ) ;
#136 = CC_DESIGN_DATE_AND_TIME_ASSIGNMENT ( #91, #193, ( #112 ) ) ;
#137 = CONICAL_SURFACE ( 'NONE', #18, 0.5250000000000000222, 0.7853981633974512766 ) ;
#138 = ORIENTED_EDGE ( 'NONE', *, *, #101, .T. ) ;
#139 = FACE_OUTER_BOUND ( 'NONE', #96, .T. ) ;
#140 = LOCAL_TIME ( 13, 25, 47.00000000000000000, #22 ) ;
#141 = CARTESIAN_POINT ( 'NONE',  ( 5.586370142149013368E-14, 5.436629212149184564E-33, 16.00000000000000000 ) ) ;
#142 = DIRECTION ( 'NONE',  ( -3.491481338843133355E-15, 1.224646799147353207E-16, -1.000000000000000000 ) ) ;
#143 = DIRECTION ( 'NONE',  ( 4.275831445896957731E-31, 1.000000000000000000, 1.224646799147353207E-16 ) ) ;
#144 = CALENDAR_DATE ( 2021, 6, 10 ) ;
#145 = ADVANCED_FACE ( 'NONE', ( #185 ), #104, .F. ) ;
#146 = CIRCLE ( 'NONE', #61, 0.7249999999999972022 ) ;
#147 = APPROVAL_STATUS ( 'not_yet_approved' ) ;
#148 = AXIS2_PLACEMENT_3D ( 'NONE', #64, #128, #143 ) ;
#149 = AXIS2_PLACEMENT_3D ( 'NONE', #26, #182, #77 ) ;
#150 = FACE_OUTER_BOUND ( 'NONE', #30, .T. ) ;
#151 = EDGE_LOOP ( 'NONE', ( #114 ) ) ;
#152 = CARTESIAN_POINT ( 'NONE',  ( 1.319779946082704535E-13, -4.629164900776995227E-15, 37.79999999999999716 ) ) ;
#153 = APPROVAL_PERSON_ORGANIZATION ( #161, #95, #162 ) ;
#154 = PRODUCT ( '110', '110', '', ( #93 ) ) ;
#155 = ADVANCED_FACE ( 'NONE', ( #46 ), #169, .T. ) ;
#156 = CARTESIAN_POINT ( 'NONE',  ( 5.586370142149013368E-14, 0.7249999999999953149, 16.00000000000000000 ) ) ;
#157 = LOCAL_TIME ( 13, 25, 47.00000000000000000, #39 ) ;
#158 = CARTESIAN_POINT ( 'NONE',  ( 1.326762908760390423E-13, -4.653657836759941941E-15, 38.00000000000000000 ) ) ;
#159 = DIRECTION ( 'NONE',  ( 0.0000000000000000000, 1.000000000000000000, 0.0000000000000000000 ) ) ;
#160 = PERSON ( 'UNSPECIFIED', 'UNSPECIFIED', 'UNSPECIFIED', ('UNSPECIFIED'), ('UNSPECIFIED'), ('UNSPECIFIED') ) ;
#161 = PERSON_AND_ORGANIZATION ( #160, #116 ) ;
#162 = APPROVAL_ROLE ( '' ) ;
#163 = APPROVAL_PERSON_ORGANIZATION ( #70, #11, #176 ) ;
#164 = CALENDAR_DATE ( 2021, 6, 10 ) ;
#165 = DIRECTION ( 'NONE',  ( 0.0000000000000000000, 1.000000000000000000, 0.0000000000000000000 ) ) ;
#166 = AXIS2_PLACEMENT_3D ( 'NONE', #199, #123, #43 ) ;
#167 = FACE_OUTER_BOUND ( 'NONE', #27, .T. ) ;
#168 = EDGE_LOOP ( 'NONE', ( #113 ) ) ;
#169 = PLANE ( 'NONE',  #181 ) ;
#170 = DIRECTION ( 'NONE',  ( 5.312910191413098851E-31, 1.000000000000000000, 1.495451272393808910E-16 ) ) ;
#171 = VERTEX_POINT ( 'NONE', #156 ) ;
#172 = AXIS2_PLACEMENT_3D ( 'NONE', #31, #130, #170 ) ;
#173 = CIRCLE ( 'NONE', #172, 0.7249999999999953149 ) ;
#174 = CARTESIAN_POINT ( 'NONE',  ( 0.0000000000000000000, 0.0000000000000000000, 0.0000000000000000000 ) ) ;
#175 = CARTESIAN_POINT ( 'NONE',  ( 1.326762908760390423E-13, 0.5249999999999953593, 38.00000000000000000 ) ) ;
#176 = APPROVAL_ROLE ( '' ) ;
#177 = CALENDAR_DATE ( 2021, 6, 10 ) ;
#178 = DATE_AND_TIME ( #4, #99 ) ;
#179 = APPROVAL_STATUS ( 'not_yet_approved' ) ;
#180 = CIRCLE ( 'NONE', #14, 0.7249999999999999778 ) ;
#181 = AXIS2_PLACEMENT_3D ( 'NONE', #118, #200, #131 ) ;
#182 = DIRECTION ( 'NONE',  ( -3.491481338843133355E-15, 1.224646799147353207E-16, -1.000000000000000000 ) ) ;
#183 = DIRECTION ( 'NONE',  ( -3.491481338843133355E-15, 1.224646799147353207E-16, -1.000000000000000000 ) ) ;
#184 = CC_DESIGN_SECURITY_CLASSIFICATION ( #191, ( #78 ) ) ;
#185 = FACE_OUTER_BOUND ( 'NONE', #8, .T. ) ;
#186 = APPROVAL ( #147, 'UNSPECIFIED' ) ;
#187 = DIRECTION ( 'NONE',  ( -3.491481338843133355E-15, 1.224646799147353207E-16, -1.000000000000000000 ) ) ;
#188 = DIRECTION ( 'NONE',  ( 4.275831445896958607E-31, 1.000000000000000000, 1.224646799147353207E-16 ) ) ;
#189 = APPROVAL_DATE_TIME ( #133, #95 ) ;
#190 = CIRCLE ( 'NONE', #53, 0.5250000000000000222 ) ;
#191 = SECURITY_CLASSIFICATION ( '', '', #107 ) ;
#192 = APPROVAL_ROLE ( '' ) ;
#193 = DATE_TIME_ROLE ( 'creation_date' ) ;
#194 = APPROVAL_STATUS ( 'not_yet_approved' ) ;
#195 = CC_DESIGN_PERSON_AND_ORGANIZATION_ASSIGNMENT ( #52, #55, ( #191 ) ) ;
#196 = DIRECTION ( 'NONE',  ( 0.0000000000000000000, 1.000000000000000000, 0.0000000000000000000 ) ) ;
#197 = AXIS2_PLACEMENT_3D ( 'NONE', #83, #183, #188 ) ;
#198 = ORIENTED_EDGE ( 'NONE', *, *, #202, .F. ) ;
#199 = CARTESIAN_POINT ( 'NONE',  ( 1.180375752790677730E-15, -4.140200812086301676E-17, 0.3380730521623762086 ) ) ;
#200 = DIRECTION ( 'NONE',  ( 3.491481338843133355E-15, -1.224646799147353207E-16, 1.000000000000000000 ) ) ;
#201 = AXIS2_PLACEMENT_3D ( 'NONE', #141, #12, #66 ) ;
#202 = EDGE_CURVE ( 'NONE', #36, #36, #173, .T. ) ;
#203 = DIRECTION ( 'NONE',  ( -3.491481338843133355E-15, 1.224646799147353207E-16, -1.000000000000000000 ) ) ;
ENDSEC;
END-ISO-10303-21;
