ISO-10303-21;
HEADER;
FILE_DESCRIPTION (( 'STEP AP203' ),
    '1' );
FILE_NAME ('109.step',
    '2021-10-06T11:25:46',
    ( '' ),
    ( '' ),
    'SwSTEP 2.0',
    'SolidWorks 2019',
    '' );
FILE_SCHEMA (( 'CONFIG_CONTROL_DESIGN' ));
ENDSEC;

DATA;
#1 = PERSON_AND_ORGANIZATION ( #109, #55 ) ;
#2 = EDGE_LOOP ( 'NONE', ( #67 ) ) ;
#3 = CC_DESIGN_APPROVAL ( #104, ( #163 ) ) ;
#4 = PERSON_AND_ORGANIZATION_ROLE ( 'design_supplier' ) ;
#5 = DATE_TIME_ROLE ( 'creation_date' ) ;
#6 = ORIENTED_EDGE ( 'NONE', *, *, #23, .T. ) ;
#7 = EDGE_CURVE ( 'NONE', #70, #70, #62, .T. ) ;
#8 = DIRECTION ( 'NONE',  ( -3.491481338843133355E-15, 1.224646799147353207E-16, -1.000000000000000000 ) ) ;
#9 = CARTESIAN_POINT ( 'NONE',  ( 1.139673140625481762E-15, -3.997435266841946573E-17, 0.3264153607085011344 ) ) ;
#10 = DIRECTION ( 'NONE',  ( -3.491481338843133355E-15, 1.224646799147353207E-16, -1.000000000000000000 ) ) ;
#11 = CLOSED_SHELL ( 'NONE', ( #16, #143, #151, #195 ) ) ;
#12 = DIRECTION ( 'NONE',  ( 0.0000000000000000000, 1.000000000000000000, 0.0000000000000000000 ) ) ;
#13 = FACE_OUTER_BOUND ( 'NONE', #19, .T. ) ;
#14 = DIRECTION ( 'NONE',  ( 1.000000000000000000, 0.0000000000000000000, 0.0000000000000000000 ) ) ;
#15 = CONICAL_SURFACE ( 'NONE', #138, 0.5000000000000000000, 0.7853981633974512766 ) ;
#16 = ADVANCED_FACE ( 'NONE', ( #111 ), #115, .F. ) ;
#17 = COORDINATED_UNIVERSAL_TIME_OFFSET ( 1, 0, .AHEAD. ) ;
#18 = APPROVAL_ROLE ( '' ) ;
#19 = EDGE_LOOP ( 'NONE', ( #141 ) ) ;
#20 = LOCAL_TIME ( 13, 25, 46.00000000000000000, #126 ) ;
#21 = APPROVAL_STATUS ( 'not_yet_approved' ) ;
#22 = EDGE_LOOP ( 'NONE', ( #108 ) ) ;
#23 = EDGE_CURVE ( 'NONE', #71, #71, #113, .T. ) ;
#24 = FACE_OUTER_BOUND ( 'NONE', #178, .T. ) ;
#25 = DIRECTION ( 'NONE',  ( -3.491481338843133355E-15, 1.224646799147353207E-16, -1.000000000000000000 ) ) ;
#26 = AXIS2_PLACEMENT_3D ( 'NONE', #100, #8, #40 ) ;
#27 = CARTESIAN_POINT ( 'NONE',  ( 1.319779946082704535E-13, 0.6999999999999952927, 37.79999999999999716 ) ) ;
#28 = DIRECTION ( 'NONE',  ( 3.491481338843133355E-15, -1.224646799147353207E-16, 1.000000000000000000 ) ) ;
#29 =( NAMED_UNIT ( * ) PLANE_ANGLE_UNIT ( ) SI_UNIT ( $, .RADIAN. ) );
#30 = DIRECTION ( 'NONE',  ( 0.0000000000000000000, 0.0000000000000000000, 1.000000000000000000 ) ) ;
#31 = CALENDAR_DATE ( 2021, 6, 10 ) ;
#32 = PERSON_AND_ORGANIZATION ( #109, #55 ) ;
#33 = CC_DESIGN_APPROVAL ( #145, ( #112 ) ) ;
#34 = CONICAL_SURFACE ( 'NONE', #201, 0.6999999999999952927, 1.134464013796309123 ) ;
#35 = CC_DESIGN_PERSON_AND_ORGANIZATION_ASSIGNMENT ( #64, #170, ( #154 ) ) ;
#36 = ORIENTED_EDGE ( 'NONE', *, *, #7, .F. ) ;
#37 = LOCAL_TIME ( 13, 25, 46.00000000000000000, #128 ) ;
#38 = FACE_OUTER_BOUND ( 'NONE', #106, .T. ) ;
#39 = FACE_OUTER_BOUND ( 'NONE', #22, .T. ) ;
#40 = DIRECTION ( 'NONE',  ( 4.275831445896958607E-31, 1.000000000000000000, 1.224646799147353207E-16 ) ) ;
#41 = AXIS2_PLACEMENT_3D ( 'NONE', #135, #194, #86 ) ;
#42 = AXIS2_PLACEMENT_3D ( 'NONE', #58, #117, #132 ) ;
#43 = CARTESIAN_POINT ( 'NONE',  ( 1.326762908760390423E-13, -4.653657836759941941E-15, 38.00000000000000000 ) ) ;
#44 = DIRECTION ( 'NONE',  ( 3.491481338843133355E-15, -1.224646799147353207E-16, 1.000000000000000000 ) ) ;
#45 = PERSON_AND_ORGANIZATION_ROLE ( 'creator' ) ;
#46 =( NAMED_UNIT ( * ) SI_UNIT ( $, .STERADIAN. ) SOLID_ANGLE_UNIT ( ) );
#47 = APPROVAL_DATE_TIME ( #107, #202 ) ;
#48 = EDGE_LOOP ( 'NONE', ( #131 ) ) ;
#49 = CC_DESIGN_PERSON_AND_ORGANIZATION_ASSIGNMENT ( #142, #45, ( #112 ) ) ;
#50 = COORDINATED_UNIVERSAL_TIME_OFFSET ( 1, 0, .AHEAD. ) ;
#51 = DIRECTION ( 'NONE',  ( -3.491481338843133355E-15, 1.224646799147353207E-16, -1.000000000000000000 ) ) ;
#52 = AXIS2_PLACEMENT_3D ( 'NONE', #43, #182, #12 ) ;
#53 = ADVANCED_FACE ( 'NONE', ( #38 ), #34, .T. ) ;
#54 = VERTEX_POINT ( 'NONE', #69 ) ;
#55 = ORGANIZATION ( 'UNSPECIFIED', 'UNSPECIFIED', '' ) ;
#56 = CARTESIAN_POINT ( 'NONE',  ( 5.586370142149013368E-14, -1.959434878635765131E-15, 16.00000000000000000 ) ) ;
#57 = CARTESIAN_POINT ( 'NONE',  ( 5.586370142149013368E-14, 5.249159239316452363E-33, 16.00000000000000000 ) ) ;
#58 = CARTESIAN_POINT ( 'NONE',  ( 0.0000000000000000000, 0.0000000000000000000, 0.0000000000000000000 ) ) ;
#59 = EDGE_CURVE ( 'NONE', #54, #54, #120, .T. ) ;
#60 = DIRECTION ( 'NONE',  ( 3.491481338843133355E-15, -1.224646799147353207E-16, 1.000000000000000000 ) ) ;
#61 = COORDINATED_UNIVERSAL_TIME_OFFSET ( 1, 0, .AHEAD. ) ;
#62 = CIRCLE ( 'NONE', #153, 0.6999999999999952927 ) ;
#63 = DATE_TIME_ROLE ( 'classification_date' ) ;
#64 = PERSON_AND_ORGANIZATION ( #109, #55 ) ;
#65 =( LENGTH_UNIT ( ) NAMED_UNIT ( * ) SI_UNIT ( .MILLI., .METRE. ) );
#66 = CARTESIAN_POINT ( 'NONE',  ( 1.139673140625481762E-15, -3.997435266841946573E-17, 0.3264153607085011344 ) ) ;
#67 = ORIENTED_EDGE ( 'NONE', *, *, #59, .T. ) ;
#68 = CARTESIAN_POINT ( 'NONE',  ( 1.319779946082704535E-13, -4.629164900776995227E-15, 37.79999999999999716 ) ) ;
#69 = CARTESIAN_POINT ( 'NONE',  ( 5.586370142149013368E-14, 0.6999999999999952927, 16.00000000000000000 ) ) ;
#70 = VERTEX_POINT ( 'NONE', #134 ) ;
#71 = VERTEX_POINT ( 'NONE', #147 ) ;
#72 = FACE_BOUND ( 'NONE', #48, .T. ) ;
#73 = LOCAL_TIME ( 13, 25, 46.00000000000000000, #17 ) ;
#74 = MECHANICAL_CONTEXT ( 'NONE', #80, 'mechanical' ) ;
#75 = CIRCLE ( 'NONE', #191, 0.6999999999999999556 ) ;
#76 = APPROVAL_PERSON_ORGANIZATION ( #1, #145, #18 ) ;
#77 = PERSON_AND_ORGANIZATION_ROLE ( 'design_owner' ) ;
#78 = PERSON_AND_ORGANIZATION_ROLE ( 'creator' ) ;
#79 = EDGE_LOOP ( 'NONE', ( #161 ) ) ;
#80 = APPLICATION_CONTEXT ( 'configuration controlled 3d designs of mechanical parts and assemblies' ) ;
#81 = CARTESIAN_POINT ( 'NONE',  ( 5.586370142149013368E-14, 5.249159239316452363E-33, 16.00000000000000000 ) ) ;
#82 = PLANE ( 'NONE',  #26 ) ;
#83 = DIRECTION ( 'NONE',  ( 0.0000000000000000000, 1.000000000000000000, 0.0000000000000000000 ) ) ;
#84 = AXIS2_PLACEMENT_3D ( 'NONE', #148, #25, #162 ) ;
#85 = VERTEX_POINT ( 'NONE', #27 ) ;
#86 = DIRECTION ( 'NONE',  ( 4.275831445896957731E-31, 1.000000000000000000, 1.224646799147353207E-16 ) ) ;
#87 = DATE_AND_TIME ( #155, #119 ) ;
#88 = UNCERTAINTY_MEASURE_WITH_UNIT (LENGTH_MEASURE( 1.000000000000000082E-05 ), #65, 'distance_accuracy_value', 'NONE');
#89 = EDGE_CURVE ( 'NONE', #85, #85, #75, .T. ) ;
#90 = APPLICATION_PROTOCOL_DEFINITION ( 'international standard', 'config_control_design', 1994, #168 ) ;
#91 = PERSON_AND_ORGANIZATION ( #109, #55 ) ;
#92 = ORIENTED_EDGE ( 'NONE', *, *, #7, .T. ) ;
#93 =( GEOMETRIC_REPRESENTATION_CONTEXT ( 3 ) GLOBAL_UNCERTAINTY_ASSIGNED_CONTEXT ( ( #88 ) ) GLOBAL_UNIT_ASSIGNED_CONTEXT ( ( #65, #29, #46 ) ) REPRESENTATION_CONTEXT ( 'NONE', 'WORKASPACE' ) );
#94 = ORIENTED_EDGE ( 'NONE', *, *, #110, .F. ) ;
#95 = ORIENTED_EDGE ( 'NONE', *, *, #89, .F. ) ;
#96 = DIRECTION ( 'NONE',  ( -4.275831445896958607E-31, -1.000000000000000000, -1.224646799147353207E-16 ) ) ;
#97 = PRODUCT ( '109', '109', '', ( #74 ) ) ;
#98 = FACE_OUTER_BOUND ( 'NONE', #144, .T. ) ;
#99 = CC_DESIGN_DATE_AND_TIME_ASSIGNMENT ( #121, #5, ( #163 ) ) ;
#100 = CARTESIAN_POINT ( 'NONE',  ( 1.326762908760390423E-13, 3.749399456654574913E-33, 38.00000000000000000 ) ) ;
#101 = CIRCLE ( 'NONE', #52, 0.5000000000000000000 ) ;
#102 = VERTEX_POINT ( 'NONE', #116 ) ;
#103 = DIRECTION ( 'NONE',  ( -3.491481338843133355E-15, 1.224646799147353207E-16, -1.000000000000000000 ) ) ;
#104 = APPROVAL ( #152, 'UNSPECIFIED' ) ;
#105 = PERSON_AND_ORGANIZATION ( #109, #55 ) ;
#106 = EDGE_LOOP ( 'NONE', ( #92 ) ) ;
#107 = DATE_AND_TIME ( #123, #20 ) ;
#108 = ORIENTED_EDGE ( 'NONE', *, *, #23, .F. ) ;
#109 = PERSON ( 'UNSPECIFIED', 'UNSPECIFIED', 'UNSPECIFIED', ('UNSPECIFIED'), ('UNSPECIFIED'), ('UNSPECIFIED') ) ;
#110 = EDGE_CURVE ( 'NONE', #102, #102, #101, .T. ) ;
#111 = FACE_OUTER_BOUND ( 'NONE', #2, .T. ) ;
#112 = PRODUCT_DEFINITION_FORMATION_WITH_SPECIFIED_SOURCE ( 'ANY', '', #97, .NOT_KNOWN. ) ;
#113 = CIRCLE ( 'NONE', #84, 0.6999999999999972911 ) ;
#114 = PLANE ( 'NONE',  #165 ) ;
#115 = PLANE ( 'NONE',  #175 ) ;
#116 = CARTESIAN_POINT ( 'NONE',  ( 1.326762908760390423E-13, 0.4999999999999953371, 38.00000000000000000 ) ) ;
#117 = DIRECTION ( 'NONE',  ( -3.491481338843133355E-15, 1.224646799147353207E-16, -1.000000000000000000 ) ) ;
#118 = CC_DESIGN_DATE_AND_TIME_ASSIGNMENT ( #174, #63, ( #154 ) ) ;
#119 = LOCAL_TIME ( 13, 25, 46.00000000000000000, #50 ) ;
#120 = CIRCLE ( 'NONE', #200, 0.6999999999999972911 ) ;
#121 = DATE_AND_TIME ( #186, #124 ) ;
#122 = APPROVAL_DATE_TIME ( #87, #104 ) ;
#123 = CALENDAR_DATE ( 2021, 6, 10 ) ;
#124 = LOCAL_TIME ( 13, 25, 46.00000000000000000, #61 ) ;
#125 = CLOSED_SHELL ( 'NONE', ( #53, #199, #137 ) ) ;
#126 = COORDINATED_UNIVERSAL_TIME_OFFSET ( 1, 0, .AHEAD. ) ;
#127 = PRODUCT_RELATED_PRODUCT_CATEGORY ( 'detail', '', ( #97 ) ) ;
#128 = COORDINATED_UNIVERSAL_TIME_OFFSET ( 1, 0, .AHEAD. ) ;
#129 = APPROVAL_PERSON_ORGANIZATION ( #158, #104, #188 ) ;
#130 = SHAPE_DEFINITION_REPRESENTATION ( #133, #196 ) ;
#131 = ORIENTED_EDGE ( 'NONE', *, *, #110, .T. ) ;
#132 = DIRECTION ( 'NONE',  ( 4.275831445896958607E-31, 1.000000000000000000, 1.224646799147353207E-16 ) ) ;
#133 = PRODUCT_DEFINITION_SHAPE ( 'NONE', 'NONE',  #163 ) ;
#134 = CARTESIAN_POINT ( 'NONE',  ( 1.139673140625482157E-15, 0.6999999999999952927, 0.3264153607085012454 ) ) ;
#135 = CARTESIAN_POINT ( 'NONE',  ( 0.0000000000000000000, 0.0000000000000000000, 0.0000000000000000000 ) ) ;
#136 = FACE_OUTER_BOUND ( 'NONE', #159, .T. ) ;
#137 = ADVANCED_FACE ( 'NONE', ( #39 ), #114, .T. ) ;
#138 = AXIS2_PLACEMENT_3D ( 'NONE', #169, #180, #146 ) ;
#139 = PERSON_AND_ORGANIZATION ( #109, #55 ) ;
#140 = APPROVAL_STATUS ( 'not_yet_approved' ) ;
#141 = ORIENTED_EDGE ( 'NONE', *, *, #59, .F. ) ;
#142 = PERSON_AND_ORGANIZATION ( #109, #55 ) ;
#143 = ADVANCED_FACE ( 'NONE', ( #13, #150 ), #198, .T. ) ;
#144 = EDGE_LOOP ( 'NONE', ( #95 ) ) ;
#145 = APPROVAL ( #21, 'UNSPECIFIED' ) ;
#146 = DIRECTION ( 'NONE',  ( 0.0000000000000000000, 1.000000000000000000, 0.0000000000000000000 ) ) ;
#147 = CARTESIAN_POINT ( 'NONE',  ( 5.586370142149013368E-14, 0.6999999999999952927, 16.00000000000000000 ) ) ;
#148 = CARTESIAN_POINT ( 'NONE',  ( 5.586370142149013368E-14, -1.959434878635765131E-15, 16.00000000000000000 ) ) ;
#149 = CC_DESIGN_SECURITY_CLASSIFICATION ( #154, ( #112 ) ) ;
#150 = FACE_OUTER_BOUND ( 'NONE', #79, .T. ) ;
#151 = ADVANCED_FACE ( 'NONE', ( #98, #72 ), #15, .T. ) ;
#152 = APPROVAL_STATUS ( 'not_yet_approved' ) ;
#153 = AXIS2_PLACEMENT_3D ( 'NONE', #66, #51, #177 ) ;
#154 = SECURITY_CLASSIFICATION ( '', '', #156 ) ;
#155 = CALENDAR_DATE ( 2021, 6, 10 ) ;
#156 = SECURITY_CLASSIFICATION_LEVEL ( 'unclassified' ) ;
#157 = CC_DESIGN_PERSON_AND_ORGANIZATION_ASSIGNMENT ( #32, #4, ( #112 ) ) ;
#158 = PERSON_AND_ORGANIZATION ( #109, #55 ) ;
#159 = EDGE_LOOP ( 'NONE', ( #36 ) ) ;
#160 = CC_DESIGN_PERSON_AND_ORGANIZATION_ASSIGNMENT ( #91, #77, ( #97 ) ) ;
#161 = ORIENTED_EDGE ( 'NONE', *, *, #89, .T. ) ;
#162 = DIRECTION ( 'NONE',  ( 0.0000000000000000000, 1.000000000000000000, 0.0000000000000000000 ) ) ;
#163 = PRODUCT_DEFINITION ( 'UNKNOWN', '', #112, #184 ) ;
#164 = CYLINDRICAL_SURFACE ( 'NONE', #42, 0.6999999999999962919 ) ;
#165 = AXIS2_PLACEMENT_3D ( 'NONE', #57, #28, #167 ) ;
#166 = FACE_OUTER_BOUND ( 'NONE', #190, .T. ) ;
#167 = DIRECTION ( 'NONE',  ( -4.275831445896958607E-31, -1.000000000000000000, -1.224646799147353207E-16 ) ) ;
#168 = APPLICATION_CONTEXT ( 'configuration controlled 3d designs of mechanical parts and assemblies' ) ;
#169 = CARTESIAN_POINT ( 'NONE',  ( 1.326762908760390423E-13, -4.653657836759941941E-15, 38.00000000000000000 ) ) ;
#170 = PERSON_AND_ORGANIZATION_ROLE ( 'classification_officer' ) ;
#171 = AXIS2_PLACEMENT_3D ( 'NONE', #173, #30, #14 ) ;
#172 = APPLICATION_PROTOCOL_DEFINITION ( 'international standard', 'config_control_design', 1994, #80 ) ;
#173 = CARTESIAN_POINT ( 'NONE',  ( 0.0000000000000000000, 0.0000000000000000000, 0.0000000000000000000 ) ) ;
#174 = DATE_AND_TIME ( #203, #73 ) ;
#175 = AXIS2_PLACEMENT_3D ( 'NONE', #81, #60, #96 ) ;
#176 = APPROVAL_PERSON_ORGANIZATION ( #105, #202, #187 ) ;
#177 = DIRECTION ( 'NONE',  ( 5.502656983963568168E-31, 1.000000000000000000, 1.548860246407873937E-16 ) ) ;
#178 = EDGE_LOOP ( 'NONE', ( #94 ) ) ;
#179 = MANIFOLD_SOLID_BREP ( 'Corps-Déplacer/Copier1[1]', #11 ) ;
#180 = DIRECTION ( 'NONE',  ( -3.491481338843133355E-15, 1.224646799147353207E-16, -1.000000000000000000 ) ) ;
#181 = MANIFOLD_SOLID_BREP ( 'Corps-Déplacer/Copier1[2]', #125 ) ;
#182 = DIRECTION ( 'NONE',  ( -3.491481338843133355E-15, 1.224646799147353207E-16, -1.000000000000000000 ) ) ;
#183 = CC_DESIGN_PERSON_AND_ORGANIZATION_ASSIGNMENT ( #139, #78, ( #163 ) ) ;
#184 = DESIGN_CONTEXT ( 'detailed design', #168, 'design' ) ;
#185 = APPROVAL_DATE_TIME ( #189, #145 ) ;
#186 = CALENDAR_DATE ( 2021, 6, 10 ) ;
#187 = APPROVAL_ROLE ( '' ) ;
#188 = APPROVAL_ROLE ( '' ) ;
#189 = DATE_AND_TIME ( #31, #37 ) ;
#190 = EDGE_LOOP ( 'NONE', ( #6 ) ) ;
#191 = AXIS2_PLACEMENT_3D ( 'NONE', #68, #103, #193 ) ;
#192 = CC_DESIGN_APPROVAL ( #202, ( #154 ) ) ;
#193 = DIRECTION ( 'NONE',  ( 0.0000000000000000000, 1.000000000000000000, 0.0000000000000000000 ) ) ;
#194 = DIRECTION ( 'NONE',  ( -3.491481338843133355E-15, 1.224646799147353207E-16, -1.000000000000000000 ) ) ;
#195 = ADVANCED_FACE ( 'NONE', ( #24 ), #82, .F. ) ;
#196 = ADVANCED_BREP_SHAPE_REPRESENTATION ( '109', ( #179, #181, #171 ), #93 ) ;
#197 = DIRECTION ( 'NONE',  ( -5.502656983963568168E-31, -1.000000000000000000, -1.548860246407873937E-16 ) ) ;
#198 = CYLINDRICAL_SURFACE ( 'NONE', #41, 0.6999999999999986233 ) ;
#199 = ADVANCED_FACE ( 'NONE', ( #136, #166 ), #164, .T. ) ;
#200 = AXIS2_PLACEMENT_3D ( 'NONE', #56, #10, #83 ) ;
#201 = AXIS2_PLACEMENT_3D ( 'NONE', #9, #44, #197 ) ;
#202 = APPROVAL ( #140, 'UNSPECIFIED' ) ;
#203 = CALENDAR_DATE ( 2021, 6, 10 ) ;
ENDSEC;
END-ISO-10303-21;
