ISO-10303-21;
HEADER;
FILE_DESCRIPTION (( 'STEP AP203' ),
    '1' );
FILE_NAME ('108.step',
    '2021-10-06T11:25:45',
    ( '' ),
    ( '' ),
    'SwSTEP 2.0',
    'SolidWorks 2019',
    '' );
FILE_SCHEMA (( 'CONFIG_CONTROL_DESIGN' ));
ENDSEC;

DATA;
#1 = COORDINATED_UNIVERSAL_TIME_OFFSET ( 1, 0, .AHEAD. ) ;
#2 = AXIS2_PLACEMENT_3D ( 'NONE', #181, #182, #54 ) ;
#3 = AXIS2_PLACEMENT_3D ( 'NONE', #153, #6, #194 ) ;
#4 = ADVANCED_FACE ( 'NONE', ( #19 ), #5, .T. ) ;
#5 = PLANE ( 'NONE',  #3 ) ;
#6 = DIRECTION ( 'NONE',  ( 3.491481338843133355E-15, -1.224646799147353207E-16, 1.000000000000000000 ) ) ;
#7 = CC_DESIGN_PERSON_AND_ORGANIZATION_ASSIGNMENT ( #44, #15, ( #29 ) ) ;
#8 = FACE_OUTER_BOUND ( 'NONE', #147, .T. ) ;
#9 = DIRECTION ( 'NONE',  ( 0.0000000000000000000, 1.000000000000000000, 0.0000000000000000000 ) ) ;
#10 = LOCAL_TIME ( 13, 25, 45.00000000000000000, #1 ) ;
#11 = DATE_AND_TIME ( #94, #115 ) ;
#12 = APPLICATION_PROTOCOL_DEFINITION ( 'international standard', 'config_control_design', 1994, #26 ) ;
#13 = APPLICATION_CONTEXT ( 'configuration controlled 3d designs of mechanical parts and assemblies' ) ;
#14 = APPLICATION_PROTOCOL_DEFINITION ( 'international standard', 'config_control_design', 1994, #13 ) ;
#15 = PERSON_AND_ORGANIZATION_ROLE ( 'design_owner' ) ;
#16 = PERSON ( 'UNSPECIFIED', 'UNSPECIFIED', 'UNSPECIFIED', ('UNSPECIFIED'), ('UNSPECIFIED'), ('UNSPECIFIED') ) ;
#17 = CC_DESIGN_PERSON_AND_ORGANIZATION_ASSIGNMENT ( #63, #78, ( #25 ) ) ;
#18 = CIRCLE ( 'NONE', #151, 0.6750000000000000444 ) ;
#19 = FACE_OUTER_BOUND ( 'NONE', #164, .T. ) ;
#20 = CARTESIAN_POINT ( 'NONE',  ( 1.098970528460285795E-15, -3.854669721597589622E-17, 0.3147576692546260047 ) ) ;
#21 = CARTESIAN_POINT ( 'NONE',  ( 1.319779946082704535E-13, -4.629164900776995227E-15, 37.79999999999999716 ) ) ;
#22 = EDGE_LOOP ( 'NONE', ( #41 ) ) ;
#23 = MANIFOLD_SOLID_BREP ( 'Corps-Déplacer/Copier1[1]', #142 ) ;
#24 = APPROVAL_STATUS ( 'not_yet_approved' ) ;
#25 = PRODUCT_DEFINITION ( 'UNKNOWN', '', #66, #106 ) ;
#26 = APPLICATION_CONTEXT ( 'configuration controlled 3d designs of mechanical parts and assemblies' ) ;
#27 = APPROVAL_PERSON_ORGANIZATION ( #138, #31, #184 ) ;
#28 = CARTESIAN_POINT ( 'NONE',  ( 1.326762908760390423E-13, 0.4749999999999953704, 38.00000000000000000 ) ) ;
#29 = PRODUCT ( '108', '108', '', ( #185 ) ) ;
#30 = DIRECTION ( 'NONE',  ( -4.275831445896958607E-31, -1.000000000000000000, -1.224646799147353207E-16 ) ) ;
#31 = APPROVAL ( #199, 'UNSPECIFIED' ) ;
#32 = DIRECTION ( 'NONE',  ( -3.491481338843133355E-15, 1.224646799147353207E-16, -1.000000000000000000 ) ) ;
#33 = AXIS2_PLACEMENT_3D ( 'NONE', #20, #119, #87 ) ;
#34 = DATE_TIME_ROLE ( 'classification_date' ) ;
#35 = CC_DESIGN_PERSON_AND_ORGANIZATION_ASSIGNMENT ( #36, #179, ( #66 ) ) ;
#36 = PERSON_AND_ORGANIZATION ( #16, #158 ) ;
#37 = UNCERTAINTY_MEASURE_WITH_UNIT (LENGTH_MEASURE( 1.000000000000000082E-05 ), #92, 'distance_accuracy_value', 'NONE');
#38 = ORIENTED_EDGE ( 'NONE', *, *, #133, .F. ) ;
#39 = ORIENTED_EDGE ( 'NONE', *, *, #83, .F. ) ;
#40 = DIRECTION ( 'NONE',  ( -3.491481338843133355E-15, 1.224646799147353207E-16, -1.000000000000000000 ) ) ;
#41 = ORIENTED_EDGE ( 'NONE', *, *, #99, .F. ) ;
#42 = EDGE_CURVE ( 'NONE', #62, #62, #143, .T. ) ;
#43 = ORIENTED_EDGE ( 'NONE', *, *, #99, .T. ) ;
#44 = PERSON_AND_ORGANIZATION ( #16, #158 ) ;
#45 = CARTESIAN_POINT ( 'NONE',  ( 1.326762908760390423E-13, -4.653657836759941941E-15, 38.00000000000000000 ) ) ;
#46 = DIRECTION ( 'NONE',  ( 0.0000000000000000000, 0.0000000000000000000, 1.000000000000000000 ) ) ;
#47 = AXIS2_PLACEMENT_3D ( 'NONE', #132, #135, #197 ) ;
#48 = DATE_AND_TIME ( #190, #137 ) ;
#49 = SHAPE_DEFINITION_REPRESENTATION ( #172, #139 ) ;
#50 = PERSON_AND_ORGANIZATION_ROLE ( 'creator' ) ;
#51 = AXIS2_PLACEMENT_3D ( 'NONE', #45, #32, #201 ) ;
#52 = PRODUCT_RELATED_PRODUCT_CATEGORY ( 'detail', '', ( #29 ) ) ;
#53 = APPROVAL_DATE_TIME ( #48, #186 ) ;
#54 = DIRECTION ( 'NONE',  ( 0.0000000000000000000, 1.000000000000000000, 0.0000000000000000000 ) ) ;
#55 = EDGE_LOOP ( 'NONE', ( #196 ) ) ;
#56 = CARTESIAN_POINT ( 'NONE',  ( 0.0000000000000000000, 0.0000000000000000000, 0.0000000000000000000 ) ) ;
#57 = LOCAL_TIME ( 13, 25, 45.00000000000000000, #80 ) ;
#58 = CYLINDRICAL_SURFACE ( 'NONE', #189, 0.6749999999999987121 ) ;
#59 = CALENDAR_DATE ( 2021, 6, 10 ) ;
#60 = FACE_OUTER_BOUND ( 'NONE', #121, .T. ) ;
#61 = CC_DESIGN_APPROVAL ( #193, ( #25 ) ) ;
#62 = VERTEX_POINT ( 'NONE', #107 ) ;
#63 = PERSON_AND_ORGANIZATION ( #16, #158 ) ;
#64 = ADVANCED_FACE ( 'NONE', ( #8, #154 ), #58, .T. ) ;
#65 = CALENDAR_DATE ( 2021, 6, 10 ) ;
#66 = PRODUCT_DEFINITION_FORMATION_WITH_SPECIFIED_SOURCE ( 'ANY', '', #29, .NOT_KNOWN. ) ;
#67 = PERSON_AND_ORGANIZATION ( #16, #158 ) ;
#68 = SECURITY_CLASSIFICATION_LEVEL ( 'unclassified' ) ;
#69 = ORIENTED_EDGE ( 'NONE', *, *, #42, .F. ) ;
#70 = LOCAL_TIME ( 13, 25, 45.00000000000000000, #130 ) ;
#71 = FACE_OUTER_BOUND ( 'NONE', #150, .T. ) ;
#72 = PLANE ( 'NONE',  #47 ) ;
#73 = ORIENTED_EDGE ( 'NONE', *, *, #200, .T. ) ;
#74 = FACE_OUTER_BOUND ( 'NONE', #55, .T. ) ;
#75 = CC_DESIGN_PERSON_AND_ORGANIZATION_ASSIGNMENT ( #67, #82, ( #108 ) ) ;
#76 = FACE_OUTER_BOUND ( 'NONE', #22, .T. ) ;
#77 = CIRCLE ( 'NONE', #51, 0.4750000000000000333 ) ;
#78 = PERSON_AND_ORGANIZATION_ROLE ( 'creator' ) ;
#79 = PERSON_AND_ORGANIZATION ( #16, #158 ) ;
#80 = COORDINATED_UNIVERSAL_TIME_OFFSET ( 1, 0, .AHEAD. ) ;
#81 = VERTEX_POINT ( 'NONE', #111 ) ;
#82 = PERSON_AND_ORGANIZATION_ROLE ( 'classification_officer' ) ;
#83 = EDGE_CURVE ( 'NONE', #188, #188, #124, .T. ) ;
#84 = DIRECTION ( 'NONE',  ( 4.275831445896958607E-31, 1.000000000000000000, 1.224646799147353207E-16 ) ) ;
#85 = CC_DESIGN_DATE_AND_TIME_ASSIGNMENT ( #11, #122, ( #25 ) ) ;
#86 = FACE_OUTER_BOUND ( 'NONE', #166, .T. ) ;
#87 = DIRECTION ( 'NONE',  ( -2.853229547240368761E-31, -1.000000000000000000, -1.606225440719276721E-16 ) ) ;
#88 = CC_DESIGN_DATE_AND_TIME_ASSIGNMENT ( #191, #34, ( #108 ) ) ;
#89 = DIRECTION ( 'NONE',  ( 0.0000000000000000000, 1.000000000000000000, 0.0000000000000000000 ) ) ;
#90 = DIRECTION ( 'NONE',  ( 4.275831445896958607E-31, 1.000000000000000000, 1.224646799147353207E-16 ) ) ;
#91 = APPROVAL_ROLE ( '' ) ;
#92 =( LENGTH_UNIT ( ) NAMED_UNIT ( * ) SI_UNIT ( .MILLI., .METRE. ) );
#93 = ADVANCED_FACE ( 'NONE', ( #165, #86 ), #183, .T. ) ;
#94 = CALENDAR_DATE ( 2021, 6, 10 ) ;
#95 = VERTEX_POINT ( 'NONE', #28 ) ;
#96 = APPROVAL_PERSON_ORGANIZATION ( #79, #193, #91 ) ;
#97 = MANIFOLD_SOLID_BREP ( 'Corps-Déplacer/Copier1[2]', #162 ) ;
#98 = APPROVAL_DATE_TIME ( #175, #31 ) ;
#99 = EDGE_CURVE ( 'NONE', #169, #169, #18, .T. ) ;
#100 = CONICAL_SURFACE ( 'NONE', #33, 0.6749999999999953815, 1.134464013796309345 ) ;
#101 = DIRECTION ( 'NONE',  ( -3.491481338843133355E-15, 1.224646799147353207E-16, -1.000000000000000000 ) ) ;
#102 = CARTESIAN_POINT ( 'NONE',  ( 1.326762908760390423E-13, -4.653657836759941941E-15, 38.00000000000000000 ) ) ;
#103 = DIRECTION ( 'NONE',  ( -3.491481338843133355E-15, 1.224646799147353207E-16, -1.000000000000000000 ) ) ;
#104 = CC_DESIGN_APPROVAL ( #31, ( #66 ) ) ;
#105 = EDGE_LOOP ( 'NONE', ( #43 ) ) ;
#106 = DESIGN_CONTEXT ( 'detailed design', #13, 'design' ) ;
#107 = CARTESIAN_POINT ( 'NONE',  ( 1.098970528460285992E-15, 0.6749999999999953815, 0.3147576692546261157 ) ) ;
#108 = SECURITY_CLASSIFICATION ( '', '', #68 ) ;
#109 = DATE_AND_TIME ( #156, #10 ) ;
#110 = CC_DESIGN_PERSON_AND_ORGANIZATION_ASSIGNMENT ( #161, #50, ( #66 ) ) ;
#111 = CARTESIAN_POINT ( 'NONE',  ( 5.586370142149013368E-14, 0.6749999999999953815, 16.00000000000000000 ) ) ;
#112 = AXIS2_PLACEMENT_3D ( 'NONE', #102, #103, #149 ) ;
#113 = ADVANCED_FACE ( 'NONE', ( #76, #136 ), #174, .T. ) ;
#114 = APPROVAL_STATUS ( 'not_yet_approved' ) ;
#115 = LOCAL_TIME ( 13, 25, 45.00000000000000000, #126 ) ;
#116 = CARTESIAN_POINT ( 'NONE',  ( 5.586370142149013368E-14, -1.959434878635765131E-15, 16.00000000000000000 ) ) ;
#117 = ORIENTED_EDGE ( 'NONE', *, *, #133, .T. ) ;
#118 = CARTESIAN_POINT ( 'NONE',  ( 0.0000000000000000000, 0.0000000000000000000, 0.0000000000000000000 ) ) ;
#119 = DIRECTION ( 'NONE',  ( 3.491481338843133355E-15, -1.224646799147353207E-16, 1.000000000000000000 ) ) ;
#120 = AXIS2_PLACEMENT_3D ( 'NONE', #152, #198, #168 ) ;
#121 = EDGE_LOOP ( 'NONE', ( #117 ) ) ;
#122 = DATE_TIME_ROLE ( 'creation_date' ) ;
#123 =( NAMED_UNIT ( * ) SI_UNIT ( $, .STERADIAN. ) SOLID_ANGLE_UNIT ( ) );
#124 = CIRCLE ( 'NONE', #2, 0.6749999999999973799 ) ;
#125 = ADVANCED_FACE ( 'NONE', ( #71 ), #100, .T. ) ;
#126 = COORDINATED_UNIVERSAL_TIME_OFFSET ( 1, 0, .AHEAD. ) ;
#127 = DIRECTION ( 'NONE',  ( 1.000000000000000000, 0.0000000000000000000, 0.0000000000000000000 ) ) ;
#128 = CC_DESIGN_SECURITY_CLASSIFICATION ( #108, ( #66 ) ) ;
#129 = APPROVAL_ROLE ( '' ) ;
#130 = COORDINATED_UNIVERSAL_TIME_OFFSET ( 1, 0, .AHEAD. ) ;
#131 = DIRECTION ( 'NONE',  ( -3.491481338843133355E-15, 1.224646799147353207E-16, -1.000000000000000000 ) ) ;
#132 = CARTESIAN_POINT ( 'NONE',  ( 1.326762908760390423E-13, 3.561929483821842712E-33, 38.00000000000000000 ) ) ;
#133 = EDGE_CURVE ( 'NONE', #81, #81, #146, .T. ) ;
#134 = DIRECTION ( 'NONE',  ( -3.491481338843133355E-15, 1.224646799147353207E-16, -1.000000000000000000 ) ) ;
#135 = DIRECTION ( 'NONE',  ( -3.491481338843133355E-15, 1.224646799147353207E-16, -1.000000000000000000 ) ) ;
#136 = FACE_BOUND ( 'NONE', #167, .T. ) ;
#137 = LOCAL_TIME ( 13, 25, 45.00000000000000000, #178 ) ;
#138 = PERSON_AND_ORGANIZATION ( #16, #158 ) ;
#139 = ADVANCED_BREP_SHAPE_REPRESENTATION ( '108', ( #23, #97, #203 ), #160 ) ;
#140 = CARTESIAN_POINT ( 'NONE',  ( 5.586370142149013368E-14, 5.061689266483720162E-33, 16.00000000000000000 ) ) ;
#141 = CARTESIAN_POINT ( 'NONE',  ( 5.586370142149013368E-14, 0.6749999999999953815, 16.00000000000000000 ) ) ;
#142 = CLOSED_SHELL ( 'NONE', ( #155, #64, #113, #145 ) ) ;
#143 = CIRCLE ( 'NONE', #120, 0.6749999999999953815 ) ;
#144 = CARTESIAN_POINT ( 'NONE',  ( 0.0000000000000000000, 0.0000000000000000000, 0.0000000000000000000 ) ) ;
#145 = ADVANCED_FACE ( 'NONE', ( #74 ), #72, .F. ) ;
#146 = CIRCLE ( 'NONE', #157, 0.6749999999999973799 ) ;
#147 = EDGE_LOOP ( 'NONE', ( #38 ) ) ;
#148 = AXIS2_PLACEMENT_3D ( 'NONE', #56, #131, #90 ) ;
#149 = DIRECTION ( 'NONE',  ( 0.0000000000000000000, 1.000000000000000000, 0.0000000000000000000 ) ) ;
#150 = EDGE_LOOP ( 'NONE', ( #176 ) ) ;
#151 = AXIS2_PLACEMENT_3D ( 'NONE', #21, #101, #9 ) ;
#152 = CARTESIAN_POINT ( 'NONE',  ( 1.098970528460285795E-15, -3.854669721597589622E-17, 0.3147576692546260047 ) ) ;
#153 = CARTESIAN_POINT ( 'NONE',  ( 5.586370142149013368E-14, 5.061689266483720162E-33, 16.00000000000000000 ) ) ;
#154 = FACE_OUTER_BOUND ( 'NONE', #105, .T. ) ;
#155 = ADVANCED_FACE ( 'NONE', ( #60 ), #202, .F. ) ;
#156 = CALENDAR_DATE ( 2021, 6, 10 ) ;
#157 = AXIS2_PLACEMENT_3D ( 'NONE', #116, #134, #89 ) ;
#158 = ORGANIZATION ( 'UNSPECIFIED', 'UNSPECIFIED', '' ) ;
#159 = CARTESIAN_POINT ( 'NONE',  ( 1.319779946082704535E-13, 0.6749999999999953815, 37.79999999999999716 ) ) ;
#160 =( GEOMETRIC_REPRESENTATION_CONTEXT ( 3 ) GLOBAL_UNCERTAINTY_ASSIGNED_CONTEXT ( ( #37 ) ) GLOBAL_UNIT_ASSIGNED_CONTEXT ( ( #92, #187, #123 ) ) REPRESENTATION_CONTEXT ( 'NONE', 'WORKASPACE' ) );
#161 = PERSON_AND_ORGANIZATION ( #16, #158 ) ;
#162 = CLOSED_SHELL ( 'NONE', ( #125, #93, #4 ) ) ;
#163 = AXIS2_PLACEMENT_3D ( 'NONE', #140, #173, #30 ) ;
#164 = EDGE_LOOP ( 'NONE', ( #39 ) ) ;
#165 = FACE_OUTER_BOUND ( 'NONE', #180, .T. ) ;
#166 = EDGE_LOOP ( 'NONE', ( #195 ) ) ;
#167 = EDGE_LOOP ( 'NONE', ( #73 ) ) ;
#168 = DIRECTION ( 'NONE',  ( 2.853229547240368761E-31, 1.000000000000000000, 1.606225440719276721E-16 ) ) ;
#169 = VERTEX_POINT ( 'NONE', #159 ) ;
#170 = CC_DESIGN_APPROVAL ( #186, ( #108 ) ) ;
#171 = APPROVAL_DATE_TIME ( #109, #193 ) ;
#172 = PRODUCT_DEFINITION_SHAPE ( 'NONE', 'NONE',  #25 ) ;
#173 = DIRECTION ( 'NONE',  ( 3.491481338843133355E-15, -1.224646799147353207E-16, 1.000000000000000000 ) ) ;
#174 = CONICAL_SURFACE ( 'NONE', #112, 0.4750000000000000333, 0.7853981633974512766 ) ;
#175 = DATE_AND_TIME ( #59, #57 ) ;
#176 = ORIENTED_EDGE ( 'NONE', *, *, #42, .T. ) ;
#177 = APPROVAL_PERSON_ORGANIZATION ( #192, #186, #129 ) ;
#178 = COORDINATED_UNIVERSAL_TIME_OFFSET ( 1, 0, .AHEAD. ) ;
#179 = PERSON_AND_ORGANIZATION_ROLE ( 'design_supplier' ) ;
#180 = EDGE_LOOP ( 'NONE', ( #69 ) ) ;
#181 = CARTESIAN_POINT ( 'NONE',  ( 5.586370142149013368E-14, -1.959434878635765131E-15, 16.00000000000000000 ) ) ;
#182 = DIRECTION ( 'NONE',  ( -3.491481338843133355E-15, 1.224646799147353207E-16, -1.000000000000000000 ) ) ;
#183 = CYLINDRICAL_SURFACE ( 'NONE', #148, 0.6749999999999963807 ) ;
#184 = APPROVAL_ROLE ( '' ) ;
#185 = MECHANICAL_CONTEXT ( 'NONE', #26, 'mechanical' ) ;
#186 = APPROVAL ( #114, 'UNSPECIFIED' ) ;
#187 =( NAMED_UNIT ( * ) PLANE_ANGLE_UNIT ( ) SI_UNIT ( $, .RADIAN. ) );
#188 = VERTEX_POINT ( 'NONE', #141 ) ;
#189 = AXIS2_PLACEMENT_3D ( 'NONE', #118, #40, #84 ) ;
#190 = CALENDAR_DATE ( 2021, 6, 10 ) ;
#191 = DATE_AND_TIME ( #65, #70 ) ;
#192 = PERSON_AND_ORGANIZATION ( #16, #158 ) ;
#193 = APPROVAL ( #24, 'UNSPECIFIED' ) ;
#194 = DIRECTION ( 'NONE',  ( -4.275831445896958607E-31, -1.000000000000000000, -1.224646799147353207E-16 ) ) ;
#195 = ORIENTED_EDGE ( 'NONE', *, *, #83, .T. ) ;
#196 = ORIENTED_EDGE ( 'NONE', *, *, #200, .F. ) ;
#197 = DIRECTION ( 'NONE',  ( 4.275831445896958607E-31, 1.000000000000000000, 1.224646799147353207E-16 ) ) ;
#198 = DIRECTION ( 'NONE',  ( -3.491481338843133355E-15, 1.224646799147353207E-16, -1.000000000000000000 ) ) ;
#199 = APPROVAL_STATUS ( 'not_yet_approved' ) ;
#200 = EDGE_CURVE ( 'NONE', #95, #95, #77, .T. ) ;
#201 = DIRECTION ( 'NONE',  ( 0.0000000000000000000, 1.000000000000000000, 0.0000000000000000000 ) ) ;
#202 = PLANE ( 'NONE',  #163 ) ;
#203 = AXIS2_PLACEMENT_3D ( 'NONE', #144, #46, #127 ) ;
ENDSEC;
END-ISO-10303-21;
