ISO-10303-21;
HEADER;
FILE_DESCRIPTION (( 'STEP AP203' ),
    '1' );
FILE_NAME ('107.step',
    '2021-10-06T11:25:44',
    ( '' ),
    ( '' ),
    'SwSTEP 2.0',
    'SolidWorks 2019',
    '' );
FILE_SCHEMA (( 'CONFIG_CONTROL_DESIGN' ));
ENDSEC;

DATA;
#1 =( NAMED_UNIT ( * ) PLANE_ANGLE_UNIT ( ) SI_UNIT ( $, .RADIAN. ) );
#2 = FACE_OUTER_BOUND ( 'NONE', #147, .T. ) ;
#3 = ADVANCED_BREP_SHAPE_REPRESENTATION ( '107', ( #26, #86, #193 ), #8 ) ;
#4 = FACE_BOUND ( 'NONE', #195, .T. ) ;
#5 = SECURITY_CLASSIFICATION_LEVEL ( 'unclassified' ) ;
#6 = APPROVAL ( #121, 'UNSPECIFIED' ) ;
#7 = APPLICATION_CONTEXT ( 'configuration controlled 3d designs of mechanical parts and assemblies' ) ;
#8 =( GEOMETRIC_REPRESENTATION_CONTEXT ( 3 ) GLOBAL_UNCERTAINTY_ASSIGNED_CONTEXT ( ( #61 ) ) GLOBAL_UNIT_ASSIGNED_CONTEXT ( ( #14, #1, #66 ) ) REPRESENTATION_CONTEXT ( 'NONE', 'WORKASPACE' ) );
#9 = ADVANCED_FACE ( 'NONE', ( #52, #107 ), #168, .T. ) ;
#10 = CARTESIAN_POINT ( 'NONE',  ( 0.0000000000000000000, 0.0000000000000000000, 0.0000000000000000000 ) ) ;
#11 = AXIS2_PLACEMENT_3D ( 'NONE', #67, #53, #174 ) ;
#12 = ORIENTED_EDGE ( 'NONE', *, *, #82, .F. ) ;
#13 = CC_DESIGN_APPROVAL ( #159, ( #139 ) ) ;
#14 =( LENGTH_UNIT ( ) NAMED_UNIT ( * ) SI_UNIT ( .MILLI., .METRE. ) );
#15 = DIRECTION ( 'NONE',  ( -3.491481338843133355E-15, 1.224646799147353207E-16, -1.000000000000000000 ) ) ;
#16 = VERTEX_POINT ( 'NONE', #80 ) ;
#17 = PRODUCT_DEFINITION_SHAPE ( 'NONE', 'NONE',  #139 ) ;
#18 = DIRECTION ( 'NONE',  ( 0.0000000000000000000, 1.000000000000000000, 0.0000000000000000000 ) ) ;
#19 = CIRCLE ( 'NONE', #199, 0.6499999999999972466 ) ;
#20 = VERTEX_POINT ( 'NONE', #81 ) ;
#21 = ADVANCED_FACE ( 'NONE', ( #62 ), #113, .T. ) ;
#22 = DIRECTION ( 'NONE',  ( 0.0000000000000000000, 0.0000000000000000000, 1.000000000000000000 ) ) ;
#23 = CIRCLE ( 'NONE', #140, 0.6500000000000000222 ) ;
#24 = PERSON_AND_ORGANIZATION_ROLE ( 'design_supplier' ) ;
#25 = CIRCLE ( 'NONE', #166, 0.6499999999999953593 ) ;
#26 = MANIFOLD_SOLID_BREP ( 'Corps-Déplacer/Copier1[1]', #50 ) ;
#27 = ORIENTED_EDGE ( 'NONE', *, *, #110, .F. ) ;
#28 = CARTESIAN_POINT ( 'NONE',  ( 1.058267916295089827E-15, -3.711904176353234519E-17, 0.3030999778007509304 ) ) ;
#29 = LOCAL_TIME ( 13, 25, 44.00000000000000000, #131 ) ;
#30 = PRODUCT_RELATED_PRODUCT_CATEGORY ( 'detail', '', ( #162 ) ) ;
#31 = APPROVAL_DATE_TIME ( #69, #159 ) ;
#32 = CARTESIAN_POINT ( 'NONE',  ( 5.586370142149013368E-14, 4.874219293650987961E-33, 16.00000000000000000 ) ) ;
#33 = CALENDAR_DATE ( 2021, 6, 10 ) ;
#34 = CARTESIAN_POINT ( 'NONE',  ( 1.319779946082704535E-13, -4.629164900776995227E-15, 37.79999999999999716 ) ) ;
#35 = PERSON_AND_ORGANIZATION ( #64, #202 ) ;
#36 = PERSON_AND_ORGANIZATION ( #64, #202 ) ;
#37 = APPROVAL_STATUS ( 'not_yet_approved' ) ;
#38 = PERSON_AND_ORGANIZATION ( #64, #202 ) ;
#39 = AXIS2_PLACEMENT_3D ( 'NONE', #189, #116, #175 ) ;
#40 = CALENDAR_DATE ( 2021, 6, 10 ) ;
#41 = DATE_AND_TIME ( #40, #109 ) ;
#42 = EDGE_CURVE ( 'NONE', #20, #20, #169, .T. ) ;
#43 = LOCAL_TIME ( 13, 25, 44.00000000000000000, #194 ) ;
#44 = FACE_OUTER_BOUND ( 'NONE', #75, .T. ) ;
#45 = CARTESIAN_POINT ( 'NONE',  ( 1.326762908760390423E-13, 3.374459510989109826E-33, 38.00000000000000000 ) ) ;
#46 = ORIENTED_EDGE ( 'NONE', *, *, #135, .F. ) ;
#47 = CARTESIAN_POINT ( 'NONE',  ( 0.0000000000000000000, 0.0000000000000000000, 0.0000000000000000000 ) ) ;
#48 = CC_DESIGN_APPROVAL ( #6, ( #78 ) ) ;
#49 = EDGE_CURVE ( 'NONE', #118, #118, #25, .T. ) ;
#50 = CLOSED_SHELL ( 'NONE', ( #87, #58, #144, #114 ) ) ;
#51 = MECHANICAL_CONTEXT ( 'NONE', #137, 'mechanical' ) ;
#52 = FACE_OUTER_BOUND ( 'NONE', #111, .T. ) ;
#53 = DIRECTION ( 'NONE',  ( -3.491481338843133355E-15, 1.224646799147353207E-16, -1.000000000000000000 ) ) ;
#54 = VERTEX_POINT ( 'NONE', #130 ) ;
#55 = CC_DESIGN_PERSON_AND_ORGANIZATION_ASSIGNMENT ( #153, #104, ( #149 ) ) ;
#56 = LOCAL_TIME ( 13, 25, 44.00000000000000000, #180 ) ;
#57 = APPROVAL_ROLE ( '' ) ;
#58 = ADVANCED_FACE ( 'NONE', ( #122, #44 ), #196, .T. ) ;
#59 = CALENDAR_DATE ( 2021, 6, 10 ) ;
#60 = ORIENTED_EDGE ( 'NONE', *, *, #82, .T. ) ;
#61 = UNCERTAINTY_MEASURE_WITH_UNIT (LENGTH_MEASURE( 1.000000000000000082E-05 ), #14, 'distance_accuracy_value', 'NONE');
#62 = FACE_OUTER_BOUND ( 'NONE', #157, .T. ) ;
#63 = EDGE_LOOP ( 'NONE', ( #60 ) ) ;
#64 = PERSON ( 'UNSPECIFIED', 'UNSPECIFIED', 'UNSPECIFIED', ('UNSPECIFIED'), ('UNSPECIFIED'), ('UNSPECIFIED') ) ;
#65 = ADVANCED_FACE ( 'NONE', ( #170 ), #185, .T. ) ;
#66 =( NAMED_UNIT ( * ) SI_UNIT ( $, .STERADIAN. ) SOLID_ANGLE_UNIT ( ) );
#67 = CARTESIAN_POINT ( 'NONE',  ( 5.586370142149013368E-14, -1.959434878635765131E-15, 16.00000000000000000 ) ) ;
#68 = DIRECTION ( 'NONE',  ( 0.0000000000000000000, 1.000000000000000000, 0.0000000000000000000 ) ) ;
#69 = DATE_AND_TIME ( #33, #29 ) ;
#70 = APPLICATION_PROTOCOL_DEFINITION ( 'international standard', 'config_control_design', 1994, #7 ) ;
#71 = CC_DESIGN_DATE_AND_TIME_ASSIGNMENT ( #79, #165, ( #139 ) ) ;
#72 = DATE_AND_TIME ( #59, #43 ) ;
#73 = ORIENTED_EDGE ( 'NONE', *, *, #42, .T. ) ;
#74 = PLANE ( 'NONE',  #156 ) ;
#75 = EDGE_LOOP ( 'NONE', ( #155 ) ) ;
#76 = DIRECTION ( 'NONE',  ( -3.491481338843133355E-15, 1.224646799147353207E-16, -1.000000000000000000 ) ) ;
#77 = PERSON_AND_ORGANIZATION ( #64, #202 ) ;
#78 = SECURITY_CLASSIFICATION ( '', '', #5 ) ;
#79 = DATE_AND_TIME ( #172, #83 ) ;
#80 = CARTESIAN_POINT ( 'NONE',  ( 1.319779946082704535E-13, 0.6499999999999953593, 37.79999999999999716 ) ) ;
#81 = CARTESIAN_POINT ( 'NONE',  ( 1.326762908760390423E-13, 0.4499999999999953482, 38.00000000000000000 ) ) ;
#82 = EDGE_CURVE ( 'NONE', #100, #100, #19, .T. ) ;
#83 = LOCAL_TIME ( 13, 25, 44.00000000000000000, #95 ) ;
#84 = SHAPE_DEFINITION_REPRESENTATION ( #17, #3 ) ;
#85 = PERSON_AND_ORGANIZATION_ROLE ( 'classification_officer' ) ;
#86 = MANIFOLD_SOLID_BREP ( 'Corps-Déplacer/Copier1[2]', #187 ) ;
#87 = ADVANCED_FACE ( 'NONE', ( #161 ), #129, .F. ) ;
#88 = AXIS2_PLACEMENT_3D ( 'NONE', #28, #171, #143 ) ;
#89 = CALENDAR_DATE ( 2021, 6, 10 ) ;
#90 = EDGE_LOOP ( 'NONE', ( #46 ) ) ;
#91 = EDGE_LOOP ( 'NONE', ( #12 ) ) ;
#92 = DIRECTION ( 'NONE',  ( -3.491481338843133355E-15, 1.224646799147353207E-16, -1.000000000000000000 ) ) ;
#93 = APPROVAL_STATUS ( 'not_yet_approved' ) ;
#94 = DIRECTION ( 'NONE',  ( 3.491481338843133355E-15, -1.224646799147353207E-16, 1.000000000000000000 ) ) ;
#95 = COORDINATED_UNIVERSAL_TIME_OFFSET ( 1, 0, .AHEAD. ) ;
#96 = DIRECTION ( 'NONE',  ( -3.491481338843133355E-15, 1.224646799147353207E-16, -1.000000000000000000 ) ) ;
#97 = PERSON_AND_ORGANIZATION_ROLE ( 'creator' ) ;
#98 = AXIS2_PLACEMENT_3D ( 'NONE', #163, #132, #186 ) ;
#99 = AXIS2_PLACEMENT_3D ( 'NONE', #32, #94, #182 ) ;
#100 = VERTEX_POINT ( 'NONE', #190 ) ;
#101 = CIRCLE ( 'NONE', #11, 0.6499999999999972466 ) ;
#102 = DATE_TIME_ROLE ( 'classification_date' ) ;
#103 = CC_DESIGN_PERSON_AND_ORGANIZATION_ASSIGNMENT ( #35, #97, ( #139 ) ) ;
#104 = PERSON_AND_ORGANIZATION_ROLE ( 'creator' ) ;
#105 = DIRECTION ( 'NONE',  ( 2.962969145211153303E-31, 1.000000000000000000, 8.340016711427016918E-17 ) ) ;
#106 = CC_DESIGN_DATE_AND_TIME_ASSIGNMENT ( #134, #102, ( #78 ) ) ;
#107 = FACE_OUTER_BOUND ( 'NONE', #123, .T. ) ;
#108 = ORIENTED_EDGE ( 'NONE', *, *, #42, .F. ) ;
#109 = LOCAL_TIME ( 13, 25, 44.00000000000000000, #138 ) ;
#110 = EDGE_CURVE ( 'NONE', #16, #16, #23, .T. ) ;
#111 = EDGE_LOOP ( 'NONE', ( #124 ) ) ;
#112 = DIRECTION ( 'NONE',  ( 1.000000000000000000, 0.0000000000000000000, 0.0000000000000000000 ) ) ;
#113 = CONICAL_SURFACE ( 'NONE', #88, 0.6499999999999953593, 1.134464013796309123 ) ;
#114 = ADVANCED_FACE ( 'NONE', ( #2 ), #74, .F. ) ;
#115 = PERSON_AND_ORGANIZATION_ROLE ( 'design_owner' ) ;
#116 = DIRECTION ( 'NONE',  ( 3.491481338843133355E-15, -1.224646799147353207E-16, 1.000000000000000000 ) ) ;
#117 = CARTESIAN_POINT ( 'NONE',  ( 1.058267916295090025E-15, 0.6499999999999953593, 0.3030999778007509859 ) ) ;
#118 = VERTEX_POINT ( 'NONE', #117 ) ;
#119 = CONICAL_SURFACE ( 'NONE', #98, 0.4500000000000000111, 0.7853981633974512766 ) ;
#120 = APPROVAL_PERSON_ORGANIZATION ( #177, #159, #191 ) ;
#121 = APPROVAL_STATUS ( 'not_yet_approved' ) ;
#122 = FACE_OUTER_BOUND ( 'NONE', #91, .T. ) ;
#123 = EDGE_LOOP ( 'NONE', ( #160 ) ) ;
#124 = ORIENTED_EDGE ( 'NONE', *, *, #49, .F. ) ;
#125 = DIRECTION ( 'NONE',  ( 4.275831445896958607E-31, 1.000000000000000000, 1.224646799147353207E-16 ) ) ;
#126 = APPROVAL ( #93, 'UNSPECIFIED' ) ;
#127 = APPLICATION_PROTOCOL_DEFINITION ( 'international standard', 'config_control_design', 1994, #137 ) ;
#128 = AXIS2_PLACEMENT_3D ( 'NONE', #47, #197, #125 ) ;
#129 = PLANE ( 'NONE',  #39 ) ;
#130 = CARTESIAN_POINT ( 'NONE',  ( 5.586370142149013368E-14, 0.6499999999999953593, 16.00000000000000000 ) ) ;
#131 = COORDINATED_UNIVERSAL_TIME_OFFSET ( 1, 0, .AHEAD. ) ;
#132 = DIRECTION ( 'NONE',  ( -3.491481338843133355E-15, 1.224646799147353207E-16, -1.000000000000000000 ) ) ;
#133 = CC_DESIGN_APPROVAL ( #126, ( #149 ) ) ;
#134 = DATE_AND_TIME ( #89, #56 ) ;
#135 = EDGE_CURVE ( 'NONE', #54, #54, #101, .T. ) ;
#136 = CC_DESIGN_SECURITY_CLASSIFICATION ( #78, ( #149 ) ) ;
#137 = APPLICATION_CONTEXT ( 'configuration controlled 3d designs of mechanical parts and assemblies' ) ;
#138 = COORDINATED_UNIVERSAL_TIME_OFFSET ( 1, 0, .AHEAD. ) ;
#139 = PRODUCT_DEFINITION ( 'UNKNOWN', '', #149, #173 ) ;
#140 = AXIS2_PLACEMENT_3D ( 'NONE', #34, #96, #18 ) ;
#141 = EDGE_LOOP ( 'NONE', ( #27 ) ) ;
#142 = CARTESIAN_POINT ( 'NONE',  ( 1.058267916295089827E-15, -3.711904176353234519E-17, 0.3030999778007509304 ) ) ;
#143 = DIRECTION ( 'NONE',  ( -2.962969145211153303E-31, -1.000000000000000000, -8.340016711427016918E-17 ) ) ;
#144 = ADVANCED_FACE ( 'NONE', ( #188, #4 ), #119, .T. ) ;
#145 = APPROVAL_PERSON_ORGANIZATION ( #36, #126, #164 ) ;
#146 = CC_DESIGN_PERSON_AND_ORGANIZATION_ASSIGNMENT ( #152, #85, ( #78 ) ) ;
#147 = EDGE_LOOP ( 'NONE', ( #108 ) ) ;
#148 = DIRECTION ( 'NONE',  ( 4.275831445896958607E-31, 1.000000000000000000, 1.224646799147353207E-16 ) ) ;
#149 = PRODUCT_DEFINITION_FORMATION_WITH_SPECIFIED_SOURCE ( 'ANY', '', #162, .NOT_KNOWN. ) ;
#150 = ORIENTED_EDGE ( 'NONE', *, *, #49, .T. ) ;
#151 = APPROVAL_PERSON_ORGANIZATION ( #178, #6, #57 ) ;
#152 = PERSON_AND_ORGANIZATION ( #64, #202 ) ;
#153 = PERSON_AND_ORGANIZATION ( #64, #202 ) ;
#154 = CC_DESIGN_PERSON_AND_ORGANIZATION_ASSIGNMENT ( #77, #115, ( #162 ) ) ;
#155 = ORIENTED_EDGE ( 'NONE', *, *, #110, .T. ) ;
#156 = AXIS2_PLACEMENT_3D ( 'NONE', #45, #200, #148 ) ;
#157 = EDGE_LOOP ( 'NONE', ( #150 ) ) ;
#158 = CARTESIAN_POINT ( 'NONE',  ( 1.326762908760390423E-13, -4.653657836759941941E-15, 38.00000000000000000 ) ) ;
#159 = APPROVAL ( #37, 'UNSPECIFIED' ) ;
#160 = ORIENTED_EDGE ( 'NONE', *, *, #135, .T. ) ;
#161 = FACE_OUTER_BOUND ( 'NONE', #63, .T. ) ;
#162 = PRODUCT ( '107', '107', '', ( #51 ) ) ;
#163 = CARTESIAN_POINT ( 'NONE',  ( 1.326762908760390423E-13, -4.653657836759941941E-15, 38.00000000000000000 ) ) ;
#164 = APPROVAL_ROLE ( '' ) ;
#165 = DATE_TIME_ROLE ( 'creation_date' ) ;
#166 = AXIS2_PLACEMENT_3D ( 'NONE', #142, #76, #105 ) ;
#167 = CARTESIAN_POINT ( 'NONE',  ( 5.586370142149013368E-14, -1.959434878635765131E-15, 16.00000000000000000 ) ) ;
#168 = CYLINDRICAL_SURFACE ( 'NONE', #179, 0.6499999999999962474 ) ;
#169 = CIRCLE ( 'NONE', #176, 0.4500000000000000111 ) ;
#170 = FACE_OUTER_BOUND ( 'NONE', #90, .T. ) ;
#171 = DIRECTION ( 'NONE',  ( 3.491481338843133355E-15, -1.224646799147353207E-16, 1.000000000000000000 ) ) ;
#172 = CALENDAR_DATE ( 2021, 6, 10 ) ;
#173 = DESIGN_CONTEXT ( 'detailed design', #7, 'design' ) ;
#174 = DIRECTION ( 'NONE',  ( 0.0000000000000000000, 1.000000000000000000, 0.0000000000000000000 ) ) ;
#175 = DIRECTION ( 'NONE',  ( -4.275831445896958607E-31, -1.000000000000000000, -1.224646799147353207E-16 ) ) ;
#176 = AXIS2_PLACEMENT_3D ( 'NONE', #158, #184, #201 ) ;
#177 = PERSON_AND_ORGANIZATION ( #64, #202 ) ;
#178 = PERSON_AND_ORGANIZATION ( #64, #202 ) ;
#179 = AXIS2_PLACEMENT_3D ( 'NONE', #10, #92, #183 ) ;
#180 = COORDINATED_UNIVERSAL_TIME_OFFSET ( 1, 0, .AHEAD. ) ;
#181 = APPROVAL_DATE_TIME ( #72, #126 ) ;
#182 = DIRECTION ( 'NONE',  ( -4.275831445896958607E-31, -1.000000000000000000, -1.224646799147353207E-16 ) ) ;
#183 = DIRECTION ( 'NONE',  ( 4.275831445896959482E-31, 1.000000000000000000, 1.224646799147353454E-16 ) ) ;
#184 = DIRECTION ( 'NONE',  ( -3.491481338843133355E-15, 1.224646799147353207E-16, -1.000000000000000000 ) ) ;
#185 = PLANE ( 'NONE',  #99 ) ;
#186 = DIRECTION ( 'NONE',  ( 0.0000000000000000000, 1.000000000000000000, 0.0000000000000000000 ) ) ;
#187 = CLOSED_SHELL ( 'NONE', ( #21, #9, #65 ) ) ;
#188 = FACE_OUTER_BOUND ( 'NONE', #141, .T. ) ;
#189 = CARTESIAN_POINT ( 'NONE',  ( 5.586370142149013368E-14, 4.874219293650987961E-33, 16.00000000000000000 ) ) ;
#190 = CARTESIAN_POINT ( 'NONE',  ( 5.586370142149013368E-14, 0.6499999999999953593, 16.00000000000000000 ) ) ;
#191 = APPROVAL_ROLE ( '' ) ;
#192 = APPROVAL_DATE_TIME ( #41, #6 ) ;
#193 = AXIS2_PLACEMENT_3D ( 'NONE', #203, #22, #112 ) ;
#194 = COORDINATED_UNIVERSAL_TIME_OFFSET ( 1, 0, .AHEAD. ) ;
#195 = EDGE_LOOP ( 'NONE', ( #73 ) ) ;
#196 = CYLINDRICAL_SURFACE ( 'NONE', #128, 0.6499999999999986899 ) ;
#197 = DIRECTION ( 'NONE',  ( -3.491481338843133355E-15, 1.224646799147353207E-16, -1.000000000000000000 ) ) ;
#198 = CC_DESIGN_PERSON_AND_ORGANIZATION_ASSIGNMENT ( #38, #24, ( #149 ) ) ;
#199 = AXIS2_PLACEMENT_3D ( 'NONE', #167, #15, #68 ) ;
#200 = DIRECTION ( 'NONE',  ( -3.491481338843133355E-15, 1.224646799147353207E-16, -1.000000000000000000 ) ) ;
#201 = DIRECTION ( 'NONE',  ( 0.0000000000000000000, 1.000000000000000000, 0.0000000000000000000 ) ) ;
#202 = ORGANIZATION ( 'UNSPECIFIED', 'UNSPECIFIED', '' ) ;
#203 = CARTESIAN_POINT ( 'NONE',  ( 0.0000000000000000000, 0.0000000000000000000, 0.0000000000000000000 ) ) ;
ENDSEC;
END-ISO-10303-21;
