ISO-10303-21;
HEADER;
FILE_DESCRIPTION (( 'STEP AP203' ),
    '1' );
FILE_NAME ('106.step',
    '2021-10-06T11:25:43',
    ( '' ),
    ( '' ),
    'SwSTEP 2.0',
    'SolidWorks 2019',
    '' );
FILE_SCHEMA (( 'CONFIG_CONTROL_DESIGN' ));
ENDSEC;

DATA;
#1 = ORIENTED_EDGE ( 'NONE', *, *, #11, .T. ) ;
#2 = ORIENTED_EDGE ( 'NONE', *, *, #199, .F. ) ;
#3 = DIRECTION ( 'NONE',  ( 4.275831445896957731E-31, 1.000000000000000000, 1.224646799147353454E-16 ) ) ;
#4 = PRODUCT_DEFINITION ( 'UNKNOWN', '', #91, #58 ) ;
#5 = DIRECTION ( 'NONE',  ( 0.0000000000000000000, 1.000000000000000000, 0.0000000000000000000 ) ) ;
#6 = CC_DESIGN_APPROVAL ( #142, ( #10 ) ) ;
#7 = DIRECTION ( 'NONE',  ( 3.081487911019600574E-31, 1.000000000000000000, 8.673617379884100800E-17 ) ) ;
#8 = CALENDAR_DATE ( 2021, 6, 10 ) ;
#9 = COORDINATED_UNIVERSAL_TIME_OFFSET ( 1, 0, .AHEAD. ) ;
#10 = SECURITY_CLASSIFICATION ( '', '', #89 ) ;
#11 = EDGE_CURVE ( 'NONE', #191, #191, #39, .T. ) ;
#12 = PLANE ( 'NONE',  #60 ) ;
#13 = CARTESIAN_POINT ( 'NONE',  ( 5.586370142149013368E-14, -1.959434878635765131E-15, 16.00000000000000000 ) ) ;
#14 = FACE_OUTER_BOUND ( 'NONE', #187, .T. ) ;
#15 = AXIS2_PLACEMENT_3D ( 'NONE', #34, #132, #188 ) ;
#16 = DIRECTION ( 'NONE',  ( -3.081487911019600574E-31, -1.000000000000000000, -8.673617379884100800E-17 ) ) ;
#17 = APPROVAL ( #106, 'UNSPECIFIED' ) ;
#18 = CARTESIAN_POINT ( 'NONE',  ( 1.326762908760390423E-13, 0.4249999999999953815, 38.00000000000000000 ) ) ;
#19 = MANIFOLD_SOLID_BREP ( 'Corps-Déplacer/Copier1[1]', #110 ) ;
#20 = AXIS2_PLACEMENT_3D ( 'NONE', #50, #192, #7 ) ;
#21 =( NAMED_UNIT ( * ) SI_UNIT ( $, .STERADIAN. ) SOLID_ANGLE_UNIT ( ) );
#22 = COORDINATED_UNIVERSAL_TIME_OFFSET ( 1, 0, .AHEAD. ) ;
#23 = AXIS2_PLACEMENT_3D ( 'NONE', #173, #88, #164 ) ;
#24 = DATE_AND_TIME ( #42, #117 ) ;
#25 = LOCAL_TIME ( 13, 25, 43.00000000000000000, #22 ) ;
#26 = CC_DESIGN_PERSON_AND_ORGANIZATION_ASSIGNMENT ( #92, #139, ( #91 ) ) ;
#27 = PERSON_AND_ORGANIZATION ( #196, #190 ) ;
#28 = PERSON_AND_ORGANIZATION ( #196, #190 ) ;
#29 = ORIENTED_EDGE ( 'NONE', *, *, #119, .F. ) ;
#30 = APPROVAL_PERSON_ORGANIZATION ( #27, #49, #154 ) ;
#31 = VERTEX_POINT ( 'NONE', #84 ) ;
#32 = DIRECTION ( 'NONE',  ( 3.491481338843133355E-15, -1.224646799147353207E-16, 1.000000000000000000 ) ) ;
#33 = AXIS2_PLACEMENT_3D ( 'NONE', #133, #189, #5 ) ;
#34 = CARTESIAN_POINT ( 'NONE',  ( 5.586370142149013368E-14, 4.686749320818255760E-33, 16.00000000000000000 ) ) ;
#35 = UNCERTAINTY_MEASURE_WITH_UNIT (LENGTH_MEASURE( 1.000000000000000082E-05 ), #105, 'distance_accuracy_value', 'NONE');
#36 = CARTESIAN_POINT ( 'NONE',  ( 5.586370142149013368E-14, 0.6249999999999953371, 16.00000000000000000 ) ) ;
#37 = CC_DESIGN_PERSON_AND_ORGANIZATION_ASSIGNMENT ( #55, #197, ( #4 ) ) ;
#38 = DIRECTION ( 'NONE',  ( 0.0000000000000000000, 1.000000000000000000, 0.0000000000000000000 ) ) ;
#39 = CIRCLE ( 'NONE', #115, 0.6249999999999973355 ) ;
#40 = APPROVAL_DATE_TIME ( #41, #49 ) ;
#41 = DATE_AND_TIME ( #180, #122 ) ;
#42 = CALENDAR_DATE ( 2021, 6, 10 ) ;
#43 = CC_DESIGN_PERSON_AND_ORGANIZATION_ASSIGNMENT ( #28, #59, ( #153 ) ) ;
#44 = LOCAL_TIME ( 13, 25, 43.00000000000000000, #72 ) ;
#45 = CIRCLE ( 'NONE', #158, 0.6249999999999973355 ) ;
#46 = PERSON_AND_ORGANIZATION ( #196, #190 ) ;
#47 = CIRCLE ( 'NONE', #185, 0.6250000000000000000 ) ;
#48 = DIRECTION ( 'NONE',  ( 0.0000000000000000000, 1.000000000000000000, 0.0000000000000000000 ) ) ;
#49 = APPROVAL ( #129, 'UNSPECIFIED' ) ;
#50 = CARTESIAN_POINT ( 'NONE',  ( 1.017565304129893860E-15, -3.569138631108878184E-17, 0.2914422863468758007 ) ) ;
#51 = DIRECTION ( 'NONE',  ( -3.491481338843133355E-15, 1.224646799147353207E-16, -1.000000000000000000 ) ) ;
#52 = CARTESIAN_POINT ( 'NONE',  ( 1.017565304129894057E-15, 0.6249999999999953371, 0.2914422863468758562 ) ) ;
#53 = CARTESIAN_POINT ( 'NONE',  ( 5.586370142149013368E-14, -1.959434878635765131E-15, 16.00000000000000000 ) ) ;
#54 = CARTESIAN_POINT ( 'NONE',  ( 0.0000000000000000000, 0.0000000000000000000, 0.0000000000000000000 ) ) ;
#55 = PERSON_AND_ORGANIZATION ( #196, #190 ) ;
#56 = ADVANCED_FACE ( 'NONE', ( #100 ), #12, .T. ) ;
#57 = APPROVAL_ROLE ( '' ) ;
#58 = DESIGN_CONTEXT ( 'detailed design', #144, 'design' ) ;
#59 = PERSON_AND_ORGANIZATION_ROLE ( 'design_owner' ) ;
#60 = AXIS2_PLACEMENT_3D ( 'NONE', #64, #147, #95 ) ;
#61 = EDGE_LOOP ( 'NONE', ( #113 ) ) ;
#62 = ADVANCED_FACE ( 'NONE', ( #77 ), #143, .F. ) ;
#63 = ORIENTED_EDGE ( 'NONE', *, *, #151, .F. ) ;
#64 = CARTESIAN_POINT ( 'NONE',  ( 5.586370142149013368E-14, 4.686749320818255760E-33, 16.00000000000000000 ) ) ;
#65 = ORIENTED_EDGE ( 'NONE', *, *, #119, .T. ) ;
#66 = FACE_OUTER_BOUND ( 'NONE', #61, .T. ) ;
#67 = FACE_BOUND ( 'NONE', #172, .T. ) ;
#68 = VERTEX_POINT ( 'NONE', #18 ) ;
#69 = APPROVAL_PERSON_ORGANIZATION ( #109, #142, #160 ) ;
#70 = CARTESIAN_POINT ( 'NONE',  ( 0.0000000000000000000, 0.0000000000000000000, 0.0000000000000000000 ) ) ;
#71 = FACE_OUTER_BOUND ( 'NONE', #131, .T. ) ;
#72 = COORDINATED_UNIVERSAL_TIME_OFFSET ( 1, 0, .AHEAD. ) ;
#73 =( GEOMETRIC_REPRESENTATION_CONTEXT ( 3 ) GLOBAL_UNCERTAINTY_ASSIGNED_CONTEXT ( ( #35 ) ) GLOBAL_UNIT_ASSIGNED_CONTEXT ( ( #105, #135, #21 ) ) REPRESENTATION_CONTEXT ( 'NONE', 'WORKASPACE' ) );
#74 = EDGE_CURVE ( 'NONE', #165, #165, #80, .T. ) ;
#75 = DIRECTION ( 'NONE',  ( 0.0000000000000000000, 0.0000000000000000000, 1.000000000000000000 ) ) ;
#76 = APPLICATION_PROTOCOL_DEFINITION ( 'international standard', 'config_control_design', 1994, #94 ) ;
#77 = FACE_OUTER_BOUND ( 'NONE', #203, .T. ) ;
#78 = ORIENTED_EDGE ( 'NONE', *, *, #74, .F. ) ;
#79 = ADVANCED_FACE ( 'NONE', ( #66, #116 ), #174, .T. ) ;
#80 = CIRCLE ( 'NONE', #20, 0.6249999999999953371 ) ;
#81 = ORIENTED_EDGE ( 'NONE', *, *, #74, .T. ) ;
#82 = DIRECTION ( 'NONE',  ( 0.0000000000000000000, 1.000000000000000000, 0.0000000000000000000 ) ) ;
#83 = FACE_OUTER_BOUND ( 'NONE', #170, .T. ) ;
#84 = CARTESIAN_POINT ( 'NONE',  ( 1.319779946082704535E-13, 0.6249999999999953371, 37.79999999999999716 ) ) ;
#85 = DIRECTION ( 'NONE',  ( -3.491481338843133355E-15, 1.224646799147353207E-16, -1.000000000000000000 ) ) ;
#86 = ADVANCED_BREP_SHAPE_REPRESENTATION ( '106', ( #19, #159, #155 ), #73 ) ;
#87 = CLOSED_SHELL ( 'NONE', ( #140, #186, #56 ) ) ;
#88 = DIRECTION ( 'NONE',  ( -3.491481338843133355E-15, 1.224646799147353207E-16, -1.000000000000000000 ) ) ;
#89 = SECURITY_CLASSIFICATION_LEVEL ( 'unclassified' ) ;
#90 = APPLICATION_PROTOCOL_DEFINITION ( 'international standard', 'config_control_design', 1994, #144 ) ;
#91 = PRODUCT_DEFINITION_FORMATION_WITH_SPECIFIED_SOURCE ( 'ANY', '', #153, .NOT_KNOWN. ) ;
#92 = PERSON_AND_ORGANIZATION ( #196, #190 ) ;
#93 = PRODUCT_DEFINITION_SHAPE ( 'NONE', 'NONE',  #4 ) ;
#94 = APPLICATION_CONTEXT ( 'configuration controlled 3d designs of mechanical parts and assemblies' ) ;
#95 = DIRECTION ( 'NONE',  ( -4.275831445896958607E-31, -1.000000000000000000, -1.224646799147353207E-16 ) ) ;
#96 = DATE_TIME_ROLE ( 'classification_date' ) ;
#97 = CALENDAR_DATE ( 2021, 6, 10 ) ;
#98 = EDGE_LOOP ( 'NONE', ( #130 ) ) ;
#99 = LOCAL_TIME ( 13, 25, 43.00000000000000000, #137 ) ;
#100 = FACE_OUTER_BOUND ( 'NONE', #184, .T. ) ;
#101 = AXIS2_PLACEMENT_3D ( 'NONE', #134, #32, #16 ) ;
#102 = DIRECTION ( 'NONE',  ( -3.491481338843133355E-15, 1.224646799147353207E-16, -1.000000000000000000 ) ) ;
#103 = CARTESIAN_POINT ( 'NONE',  ( 0.0000000000000000000, 0.0000000000000000000, 0.0000000000000000000 ) ) ;
#104 = CC_DESIGN_PERSON_AND_ORGANIZATION_ASSIGNMENT ( #46, #112, ( #10 ) ) ;
#105 =( LENGTH_UNIT ( ) NAMED_UNIT ( * ) SI_UNIT ( .MILLI., .METRE. ) );
#106 = APPROVAL_STATUS ( 'not_yet_approved' ) ;
#107 = APPROVAL_DATE_TIME ( #24, #17 ) ;
#108 = CONICAL_SURFACE ( 'NONE', #33, 0.4250000000000000444, 0.7853981633974512766 ) ;
#109 = PERSON_AND_ORGANIZATION ( #196, #190 ) ;
#110 = CLOSED_SHELL ( 'NONE', ( #62, #79, #194, #201 ) ) ;
#111 = CC_DESIGN_PERSON_AND_ORGANIZATION_ASSIGNMENT ( #168, #123, ( #91 ) ) ;
#112 = PERSON_AND_ORGANIZATION_ROLE ( 'classification_officer' ) ;
#113 = ORIENTED_EDGE ( 'NONE', *, *, #11, .F. ) ;
#114 = DIRECTION ( 'NONE',  ( -3.491481338843133355E-15, 1.224646799147353207E-16, -1.000000000000000000 ) ) ;
#115 = AXIS2_PLACEMENT_3D ( 'NONE', #13, #114, #48 ) ;
#116 = FACE_OUTER_BOUND ( 'NONE', #98, .T. ) ;
#117 = LOCAL_TIME ( 13, 25, 43.00000000000000000, #181 ) ;
#118 = CARTESIAN_POINT ( 'NONE',  ( 1.319779946082704535E-13, -4.629164900776995227E-15, 37.79999999999999716 ) ) ;
#119 = EDGE_CURVE ( 'NONE', #68, #68, #179, .T. ) ;
#120 = CARTESIAN_POINT ( 'NONE',  ( 5.586370142149013368E-14, 0.6249999999999953371, 16.00000000000000000 ) ) ;
#121 = DIRECTION ( 'NONE',  ( 4.275831445896958607E-31, 1.000000000000000000, 1.224646799147353207E-16 ) ) ;
#122 = LOCAL_TIME ( 13, 25, 43.00000000000000000, #9 ) ;
#123 = PERSON_AND_ORGANIZATION_ROLE ( 'creator' ) ;
#124 = PERSON_AND_ORGANIZATION ( #196, #190 ) ;
#125 = APPROVAL_STATUS ( 'not_yet_approved' ) ;
#126 = CC_DESIGN_SECURITY_CLASSIFICATION ( #10, ( #91 ) ) ;
#127 = PRODUCT_RELATED_PRODUCT_CATEGORY ( 'detail', '', ( #153 ) ) ;
#128 = CC_DESIGN_APPROVAL ( #49, ( #4 ) ) ;
#129 = APPROVAL_STATUS ( 'not_yet_approved' ) ;
#130 = ORIENTED_EDGE ( 'NONE', *, *, #151, .T. ) ;
#131 = EDGE_LOOP ( 'NONE', ( #78 ) ) ;
#132 = DIRECTION ( 'NONE',  ( 3.491481338843133355E-15, -1.224646799147353207E-16, 1.000000000000000000 ) ) ;
#133 = CARTESIAN_POINT ( 'NONE',  ( 1.326762908760390423E-13, -4.653657836759941941E-15, 38.00000000000000000 ) ) ;
#134 = CARTESIAN_POINT ( 'NONE',  ( 1.017565304129893860E-15, -3.569138631108878184E-17, 0.2914422863468758007 ) ) ;
#135 =( NAMED_UNIT ( * ) PLANE_ANGLE_UNIT ( ) SI_UNIT ( $, .RADIAN. ) );
#136 = CARTESIAN_POINT ( 'NONE',  ( 1.326762908760390423E-13, 3.186989538156377625E-33, 38.00000000000000000 ) ) ;
#137 = COORDINATED_UNIVERSAL_TIME_OFFSET ( 1, 0, .AHEAD. ) ;
#138 = AXIS2_PLACEMENT_3D ( 'NONE', #103, #51, #3 ) ;
#139 = PERSON_AND_ORGANIZATION_ROLE ( 'design_supplier' ) ;
#140 = ADVANCED_FACE ( 'NONE', ( #178 ), #175, .T. ) ;
#141 = AXIS2_PLACEMENT_3D ( 'NONE', #70, #166, #121 ) ;
#142 = APPROVAL ( #125, 'UNSPECIFIED' ) ;
#143 = PLANE ( 'NONE',  #15 ) ;
#144 = APPLICATION_CONTEXT ( 'configuration controlled 3d designs of mechanical parts and assemblies' ) ;
#145 = DATE_AND_TIME ( #8, #25 ) ;
#146 = EDGE_LOOP ( 'NONE', ( #81 ) ) ;
#147 = DIRECTION ( 'NONE',  ( 3.491481338843133355E-15, -1.224646799147353207E-16, 1.000000000000000000 ) ) ;
#148 = CYLINDRICAL_SURFACE ( 'NONE', #138, 0.6249999999999963363 ) ;
#149 = FACE_OUTER_BOUND ( 'NONE', #200, .T. ) ;
#150 = PLANE ( 'NONE',  #163 ) ;
#151 = EDGE_CURVE ( 'NONE', #31, #31, #47, .T. ) ;
#152 = CALENDAR_DATE ( 2021, 6, 10 ) ;
#153 = PRODUCT ( '106', '106', '', ( #167 ) ) ;
#154 = APPROVAL_ROLE ( '' ) ;
#155 = AXIS2_PLACEMENT_3D ( 'NONE', #54, #75, #156 ) ;
#156 = DIRECTION ( 'NONE',  ( 1.000000000000000000, 0.0000000000000000000, 0.0000000000000000000 ) ) ;
#157 = CC_DESIGN_DATE_AND_TIME_ASSIGNMENT ( #198, #96, ( #10 ) ) ;
#158 = AXIS2_PLACEMENT_3D ( 'NONE', #53, #85, #38 ) ;
#159 = MANIFOLD_SOLID_BREP ( 'Corps-Déplacer/Copier1[2]', #87 ) ;
#160 = APPROVAL_ROLE ( '' ) ;
#161 = ORIENTED_EDGE ( 'NONE', *, *, #199, .T. ) ;
#162 = CC_DESIGN_APPROVAL ( #17, ( #91 ) ) ;
#163 = AXIS2_PLACEMENT_3D ( 'NONE', #136, #193, #176 ) ;
#164 = DIRECTION ( 'NONE',  ( 0.0000000000000000000, 1.000000000000000000, 0.0000000000000000000 ) ) ;
#165 = VERTEX_POINT ( 'NONE', #52 ) ;
#166 = DIRECTION ( 'NONE',  ( -3.491481338843133355E-15, 1.224646799147353207E-16, -1.000000000000000000 ) ) ;
#167 = MECHANICAL_CONTEXT ( 'NONE', #94, 'mechanical' ) ;
#168 = PERSON_AND_ORGANIZATION ( #196, #190 ) ;
#169 = SHAPE_DEFINITION_REPRESENTATION ( #93, #86 ) ;
#170 = EDGE_LOOP ( 'NONE', ( #161 ) ) ;
#171 = CC_DESIGN_DATE_AND_TIME_ASSIGNMENT ( #145, #183, ( #4 ) ) ;
#172 = EDGE_LOOP ( 'NONE', ( #65 ) ) ;
#173 = CARTESIAN_POINT ( 'NONE',  ( 1.326762908760390423E-13, -4.653657836759941941E-15, 38.00000000000000000 ) ) ;
#174 = CYLINDRICAL_SURFACE ( 'NONE', #141, 0.6249999999999985567 ) ;
#175 = CONICAL_SURFACE ( 'NONE', #101, 0.6249999999999953371, 1.134464013796309123 ) ;
#176 = DIRECTION ( 'NONE',  ( 4.275831445896958607E-31, 1.000000000000000000, 1.224646799147353207E-16 ) ) ;
#177 = VERTEX_POINT ( 'NONE', #36 ) ;
#178 = FACE_OUTER_BOUND ( 'NONE', #146, .T. ) ;
#179 = CIRCLE ( 'NONE', #23, 0.4250000000000000444 ) ;
#180 = CALENDAR_DATE ( 2021, 6, 10 ) ;
#181 = COORDINATED_UNIVERSAL_TIME_OFFSET ( 1, 0, .AHEAD. ) ;
#182 = APPROVAL_DATE_TIME ( #195, #142 ) ;
#183 = DATE_TIME_ROLE ( 'creation_date' ) ;
#184 = EDGE_LOOP ( 'NONE', ( #2 ) ) ;
#185 = AXIS2_PLACEMENT_3D ( 'NONE', #118, #102, #82 ) ;
#186 = ADVANCED_FACE ( 'NONE', ( #71, #83 ), #148, .T. ) ;
#187 = EDGE_LOOP ( 'NONE', ( #29 ) ) ;
#188 = DIRECTION ( 'NONE',  ( -4.275831445896958607E-31, -1.000000000000000000, -1.224646799147353207E-16 ) ) ;
#189 = DIRECTION ( 'NONE',  ( -3.491481338843133355E-15, 1.224646799147353207E-16, -1.000000000000000000 ) ) ;
#190 = ORGANIZATION ( 'UNSPECIFIED', 'UNSPECIFIED', '' ) ;
#191 = VERTEX_POINT ( 'NONE', #120 ) ;
#192 = DIRECTION ( 'NONE',  ( -3.491481338843133355E-15, 1.224646799147353207E-16, -1.000000000000000000 ) ) ;
#193 = DIRECTION ( 'NONE',  ( -3.491481338843133355E-15, 1.224646799147353207E-16, -1.000000000000000000 ) ) ;
#194 = ADVANCED_FACE ( 'NONE', ( #149, #67 ), #108, .T. ) ;
#195 = DATE_AND_TIME ( #97, #99 ) ;
#196 = PERSON ( 'UNSPECIFIED', 'UNSPECIFIED', 'UNSPECIFIED', ('UNSPECIFIED'), ('UNSPECIFIED'), ('UNSPECIFIED') ) ;
#197 = PERSON_AND_ORGANIZATION_ROLE ( 'creator' ) ;
#198 = DATE_AND_TIME ( #152, #44 ) ;
#199 = EDGE_CURVE ( 'NONE', #177, #177, #45, .T. ) ;
#200 = EDGE_LOOP ( 'NONE', ( #63 ) ) ;
#201 = ADVANCED_FACE ( 'NONE', ( #14 ), #150, .F. ) ;
#202 = APPROVAL_PERSON_ORGANIZATION ( #124, #17, #57 ) ;
#203 = EDGE_LOOP ( 'NONE', ( #1 ) ) ;
ENDSEC;
END-ISO-10303-21;
