ISO-10303-21;
HEADER;
FILE_DESCRIPTION (( 'STEP AP203' ),
    '1' );
FILE_NAME ('105.step',
    '2021-10-06T11:25:43',
    ( '' ),
    ( '' ),
    'SwSTEP 2.0',
    'SolidWorks 2019',
    '' );
FILE_SCHEMA (( 'CONFIG_CONTROL_DESIGN' ));
ENDSEC;

DATA;
#1 = DATE_AND_TIME ( #2, #33 ) ;
#2 = CALENDAR_DATE ( 2021, 6, 10 ) ;
#3 = AXIS2_PLACEMENT_3D ( 'NONE', #27, #131, #152 ) ;
#4 = VERTEX_POINT ( 'NONE', #17 ) ;
#5 = COORDINATED_UNIVERSAL_TIME_OFFSET ( 1, 0, .AHEAD. ) ;
#6 = SECURITY_CLASSIFICATION_LEVEL ( 'unclassified' ) ;
#7 = EDGE_CURVE ( 'NONE', #104, #104, #192, .T. ) ;
#8 = ORIENTED_EDGE ( 'NONE', *, *, #149, .F. ) ;
#9 = ORIENTED_EDGE ( 'NONE', *, *, #88, .T. ) ;
#10 = ORIENTED_EDGE ( 'NONE', *, *, #31, .F. ) ;
#11 = CC_DESIGN_PERSON_AND_ORGANIZATION_ASSIGNMENT ( #68, #69, ( #63 ) ) ;
#12 = ORIENTED_EDGE ( 'NONE', *, *, #88, .F. ) ;
#13 = APPROVAL_PERSON_ORGANIZATION ( #173, #191, #67 ) ;
#14 = CARTESIAN_POINT ( 'NONE',  ( 0.0000000000000000000, 0.0000000000000000000, 0.0000000000000000000 ) ) ;
#15 = APPLICATION_PROTOCOL_DEFINITION ( 'international standard', 'config_control_design', 1994, #55 ) ;
#16 = APPROVAL_ROLE ( '' ) ;
#17 = CARTESIAN_POINT ( 'NONE',  ( 1.326762908760390423E-13, 0.3999999999999953038, 38.00000000000000000 ) ) ;
#18 = PERSON_AND_ORGANIZATION_ROLE ( 'design_supplier' ) ;
#19 = CALENDAR_DATE ( 2021, 6, 10 ) ;
#20 = DATE_TIME_ROLE ( 'classification_date' ) ;
#21 = EDGE_LOOP ( 'NONE', ( #42 ) ) ;
#22 = FACE_OUTER_BOUND ( 'NONE', #59, .T. ) ;
#23 = DIRECTION ( 'NONE',  ( -3.491481338843133355E-15, 1.224646799147353207E-16, -1.000000000000000000 ) ) ;
#24 = FACE_OUTER_BOUND ( 'NONE', #61, .T. ) ;
#25 =( GEOMETRIC_REPRESENTATION_CONTEXT ( 3 ) GLOBAL_UNCERTAINTY_ASSIGNED_CONTEXT ( ( #111 ) ) GLOBAL_UNIT_ASSIGNED_CONTEXT ( ( #167, #26, #64 ) ) REPRESENTATION_CONTEXT ( 'NONE', 'WORKASPACE' ) );
#26 =( NAMED_UNIT ( * ) PLANE_ANGLE_UNIT ( ) SI_UNIT ( $, .RADIAN. ) );
#27 = CARTESIAN_POINT ( 'NONE',  ( 5.586370142149013368E-14, 4.499279347985522875E-33, 16.00000000000000000 ) ) ;
#28 = PERSON_AND_ORGANIZATION_ROLE ( 'design_owner' ) ;
#29 = AXIS2_PLACEMENT_3D ( 'NONE', #144, #196, #58 ) ;
#30 = APPROVAL_STATUS ( 'not_yet_approved' ) ;
#31 = EDGE_CURVE ( 'NONE', #135, #135, #43, .T. ) ;
#32 = APPROVAL_STATUS ( 'not_yet_approved' ) ;
#33 = LOCAL_TIME ( 13, 25, 43.00000000000000000, #82 ) ;
#34 = COORDINATED_UNIVERSAL_TIME_OFFSET ( 1, 0, .AHEAD. ) ;
#35 = APPROVAL_DATE_TIME ( #138, #165 ) ;
#36 = CALENDAR_DATE ( 2021, 6, 10 ) ;
#37 = FACE_OUTER_BOUND ( 'NONE', #21, .T. ) ;
#38 = DIRECTION ( 'NONE',  ( -3.491481338843133355E-15, 1.224646799147353207E-16, -1.000000000000000000 ) ) ;
#39 = DIRECTION ( 'NONE',  ( 4.275831445896957731E-31, 1.000000000000000000, 1.224646799147353207E-16 ) ) ;
#40 = ADVANCED_FACE ( 'NONE', ( #163 ), #145, .F. ) ;
#41 = DIRECTION ( 'NONE',  ( 0.0000000000000000000, 1.000000000000000000, 0.0000000000000000000 ) ) ;
#42 = ORIENTED_EDGE ( 'NONE', *, *, #7, .T. ) ;
#43 = CIRCLE ( 'NONE', #132, 0.5999999999999999778 ) ;
#44 = AXIS2_PLACEMENT_3D ( 'NONE', #62, #190, #80 ) ;
#45 = ADVANCED_FACE ( 'NONE', ( #115 ), #76, .F. ) ;
#46 = PERSON_AND_ORGANIZATION ( #142, #103 ) ;
#47 = AXIS2_PLACEMENT_3D ( 'NONE', #148, #147, #39 ) ;
#48 = DATE_AND_TIME ( #188, #202 ) ;
#49 = CARTESIAN_POINT ( 'NONE',  ( 9.768626919646978927E-16, 0.5999999999999953149, 0.2797845948930007265 ) ) ;
#50 = PRODUCT_DEFINITION_SHAPE ( 'NONE', 'NONE',  #133 ) ;
#51 = CIRCLE ( 'NONE', #29, 0.5999999999999972022 ) ;
#52 = PERSON_AND_ORGANIZATION ( #142, #103 ) ;
#53 = CC_DESIGN_DATE_AND_TIME_ASSIGNMENT ( #48, #107, ( #133 ) ) ;
#54 = CLOSED_SHELL ( 'NONE', ( #45, #172, #175, #40 ) ) ;
#55 = APPLICATION_CONTEXT ( 'configuration controlled 3d designs of mechanical parts and assemblies' ) ;
#56 = DESIGN_CONTEXT ( 'detailed design', #70, 'design' ) ;
#57 = EDGE_LOOP ( 'NONE', ( #8 ) ) ;
#58 = DIRECTION ( 'NONE',  ( 0.0000000000000000000, 1.000000000000000000, 0.0000000000000000000 ) ) ;
#59 = EDGE_LOOP ( 'NONE', ( #100 ) ) ;
#60 = CIRCLE ( 'NONE', #198, 0.3999999999999999667 ) ;
#61 = EDGE_LOOP ( 'NONE', ( #158 ) ) ;
#62 = CARTESIAN_POINT ( 'NONE',  ( 1.326762908760390423E-13, -4.653657836759941941E-15, 38.00000000000000000 ) ) ;
#63 = PRODUCT_DEFINITION_FORMATION_WITH_SPECIFIED_SOURCE ( 'ANY', '', #119, .NOT_KNOWN. ) ;
#64 =( NAMED_UNIT ( * ) SI_UNIT ( $, .STERADIAN. ) SOLID_ANGLE_UNIT ( ) );
#65 = CARTESIAN_POINT ( 'NONE',  ( 5.586370142149013368E-14, 0.5999999999999953149, 16.00000000000000000 ) ) ;
#66 = APPROVAL ( #30, 'UNSPECIFIED' ) ;
#67 = APPROVAL_ROLE ( '' ) ;
#68 = PERSON_AND_ORGANIZATION ( #142, #103 ) ;
#69 = PERSON_AND_ORGANIZATION_ROLE ( 'creator' ) ;
#70 = APPLICATION_CONTEXT ( 'configuration controlled 3d designs of mechanical parts and assemblies' ) ;
#71 = ADVANCED_FACE ( 'NONE', ( #37 ), #171, .T. ) ;
#72 = PERSON_AND_ORGANIZATION ( #142, #103 ) ;
#73 = CARTESIAN_POINT ( 'NONE',  ( 9.768626919646976955E-16, -3.426373085864521849E-17, 0.2797845948930006710 ) ) ;
#74 = CARTESIAN_POINT ( 'NONE',  ( 5.586370142149013368E-14, -1.959434878635765131E-15, 16.00000000000000000 ) ) ;
#75 = FACE_OUTER_BOUND ( 'NONE', #182, .T. ) ;
#76 = PLANE ( 'NONE',  #154 ) ;
#77 = LOCAL_TIME ( 13, 25, 43.00000000000000000, #5 ) ;
#78 = CARTESIAN_POINT ( 'NONE',  ( 1.326762908760390423E-13, -4.653657836759941941E-15, 38.00000000000000000 ) ) ;
#79 = FACE_BOUND ( 'NONE', #86, .T. ) ;
#80 = DIRECTION ( 'NONE',  ( 0.0000000000000000000, 1.000000000000000000, 0.0000000000000000000 ) ) ;
#81 = CIRCLE ( 'NONE', #140, 0.5999999999999972022 ) ;
#82 = COORDINATED_UNIVERSAL_TIME_OFFSET ( 1, 0, .AHEAD. ) ;
#83 = EDGE_CURVE ( 'NONE', #129, #129, #51, .T. ) ;
#84 = SECURITY_CLASSIFICATION ( '', '', #6 ) ;
#85 = DATE_AND_TIME ( #193, #160 ) ;
#86 = EDGE_LOOP ( 'NONE', ( #180 ) ) ;
#87 = DIRECTION ( 'NONE',  ( 4.275831445896958607E-31, 1.000000000000000000, 1.224646799147353207E-16 ) ) ;
#88 = EDGE_CURVE ( 'NONE', #93, #93, #81, .T. ) ;
#89 = EDGE_LOOP ( 'NONE', ( #10 ) ) ;
#90 = DIRECTION ( 'NONE',  ( -3.491481338843133355E-15, 1.224646799147353207E-16, -1.000000000000000000 ) ) ;
#91 = CYLINDRICAL_SURFACE ( 'NONE', #157, 0.5999999999999985345 ) ;
#92 = AXIS2_PLACEMENT_3D ( 'NONE', #113, #161, #87 ) ;
#93 = VERTEX_POINT ( 'NONE', #134 ) ;
#94 = COORDINATED_UNIVERSAL_TIME_OFFSET ( 1, 0, .AHEAD. ) ;
#95 = FACE_OUTER_BOUND ( 'NONE', #89, .T. ) ;
#96 = AXIS2_PLACEMENT_3D ( 'NONE', #185, #170, #186 ) ;
#97 = CC_DESIGN_PERSON_AND_ORGANIZATION_ASSIGNMENT ( #72, #18, ( #63 ) ) ;
#98 = CARTESIAN_POINT ( 'NONE',  ( 9.768626919646976955E-16, -3.426373085864521849E-17, 0.2797845948930006710 ) ) ;
#99 = CC_DESIGN_APPROVAL ( #165, ( #84 ) ) ;
#100 = ORIENTED_EDGE ( 'NONE', *, *, #7, .F. ) ;
#101 = EDGE_LOOP ( 'NONE', ( #102 ) ) ;
#102 = ORIENTED_EDGE ( 'NONE', *, *, #83, .F. ) ;
#103 = ORGANIZATION ( 'UNSPECIFIED', 'UNSPECIFIED', '' ) ;
#104 = VERTEX_POINT ( 'NONE', #49 ) ;
#105 = PERSON_AND_ORGANIZATION_ROLE ( 'creator' ) ;
#106 = CC_DESIGN_SECURITY_CLASSIFICATION ( #84, ( #63 ) ) ;
#107 = DATE_TIME_ROLE ( 'creation_date' ) ;
#108 = ADVANCED_FACE ( 'NONE', ( #22, #75 ), #179, .T. ) ;
#109 = PERSON_AND_ORGANIZATION ( #142, #103 ) ;
#110 = DATE_AND_TIME ( #19, #77 ) ;
#111 = UNCERTAINTY_MEASURE_WITH_UNIT (LENGTH_MEASURE( 1.000000000000000082E-05 ), #167, 'distance_accuracy_value', 'NONE');
#112 = APPROVAL_ROLE ( '' ) ;
#113 = CARTESIAN_POINT ( 'NONE',  ( 1.326762908760390423E-13, 2.999519565323645082E-33, 38.00000000000000000 ) ) ;
#114 = EDGE_LOOP ( 'NONE', ( #143 ) ) ;
#115 = FACE_OUTER_BOUND ( 'NONE', #114, .T. ) ;
#116 = CARTESIAN_POINT ( 'NONE',  ( 5.586370142149013368E-14, 4.499279347985522875E-33, 16.00000000000000000 ) ) ;
#117 = CARTESIAN_POINT ( 'NONE',  ( 1.319779946082704535E-13, -4.629164900776995227E-15, 37.79999999999999716 ) ) ;
#118 = MECHANICAL_CONTEXT ( 'NONE', #55, 'mechanical' ) ;
#119 = PRODUCT ( '105', '105', '', ( #118 ) ) ;
#120 = PERSON_AND_ORGANIZATION ( #142, #103 ) ;
#121 = FACE_OUTER_BOUND ( 'NONE', #201, .T. ) ;
#122 = CLOSED_SHELL ( 'NONE', ( #71, #108, #195 ) ) ;
#123 = DIRECTION ( 'NONE',  ( 3.209883240645418195E-31, 1.000000000000000000, 9.035018104045940952E-17 ) ) ;
#124 = DIRECTION ( 'NONE',  ( -3.209883240645418195E-31, -1.000000000000000000, -9.035018104045940952E-17 ) ) ;
#125 = DIRECTION ( 'NONE',  ( 0.0000000000000000000, 1.000000000000000000, 0.0000000000000000000 ) ) ;
#126 = CC_DESIGN_PERSON_AND_ORGANIZATION_ASSIGNMENT ( #46, #105, ( #133 ) ) ;
#127 = DIRECTION ( 'NONE',  ( 3.491481338843133355E-15, -1.224646799147353207E-16, 1.000000000000000000 ) ) ;
#128 = DIRECTION ( 'NONE',  ( -3.491481338843133355E-15, 1.224646799147353207E-16, -1.000000000000000000 ) ) ;
#129 = VERTEX_POINT ( 'NONE', #65 ) ;
#130 = CC_DESIGN_DATE_AND_TIME_ASSIGNMENT ( #85, #20, ( #84 ) ) ;
#131 = DIRECTION ( 'NONE',  ( 3.491481338843133355E-15, -1.224646799147353207E-16, 1.000000000000000000 ) ) ;
#132 = AXIS2_PLACEMENT_3D ( 'NONE', #117, #23, #194 ) ;
#133 = PRODUCT_DEFINITION ( 'UNKNOWN', '', #63, #56 ) ;
#134 = CARTESIAN_POINT ( 'NONE',  ( 5.586370142149013368E-14, 0.5999999999999953149, 16.00000000000000000 ) ) ;
#135 = VERTEX_POINT ( 'NONE', #203 ) ;
#136 = CONICAL_SURFACE ( 'NONE', #44, 0.3999999999999999667, 0.7853981633974512766 ) ;
#137 = APPROVAL_DATE_TIME ( #110, #191 ) ;
#138 = DATE_AND_TIME ( #36, #189 ) ;
#139 = SHAPE_DEFINITION_REPRESENTATION ( #50, #174 ) ;
#140 = AXIS2_PLACEMENT_3D ( 'NONE', #74, #38, #125 ) ;
#141 = PERSON_AND_ORGANIZATION_ROLE ( 'classification_officer' ) ;
#142 = PERSON ( 'UNSPECIFIED', 'UNSPECIFIED', 'UNSPECIFIED', ('UNSPECIFIED'), ('UNSPECIFIED'), ('UNSPECIFIED') ) ;
#143 = ORIENTED_EDGE ( 'NONE', *, *, #83, .T. ) ;
#144 = CARTESIAN_POINT ( 'NONE',  ( 5.586370142149013368E-14, -1.959434878635765131E-15, 16.00000000000000000 ) ) ;
#145 = PLANE ( 'NONE',  #92 ) ;
#146 = CC_DESIGN_PERSON_AND_ORGANIZATION_ASSIGNMENT ( #52, #141, ( #84 ) ) ;
#147 = DIRECTION ( 'NONE',  ( -3.491481338843133355E-15, 1.224646799147353207E-16, -1.000000000000000000 ) ) ;
#148 = CARTESIAN_POINT ( 'NONE',  ( 0.0000000000000000000, 0.0000000000000000000, 0.0000000000000000000 ) ) ;
#149 = EDGE_CURVE ( 'NONE', #4, #4, #60, .T. ) ;
#150 = APPLICATION_PROTOCOL_DEFINITION ( 'international standard', 'config_control_design', 1994, #70 ) ;
#151 = APPROVAL_PERSON_ORGANIZATION ( #109, #165, #112 ) ;
#152 = DIRECTION ( 'NONE',  ( -4.275831445896958607E-31, -1.000000000000000000, -1.224646799147353207E-16 ) ) ;
#153 = PLANE ( 'NONE',  #3 ) ;
#154 = AXIS2_PLACEMENT_3D ( 'NONE', #116, #127, #197 ) ;
#155 = CC_DESIGN_APPROVAL ( #66, ( #133 ) ) ;
#156 = CC_DESIGN_PERSON_AND_ORGANIZATION_ASSIGNMENT ( #169, #28, ( #119 ) ) ;
#157 = AXIS2_PLACEMENT_3D ( 'NONE', #14, #128, #168 ) ;
#158 = ORIENTED_EDGE ( 'NONE', *, *, #31, .T. ) ;
#159 = AXIS2_PLACEMENT_3D ( 'NONE', #98, #200, #124 ) ;
#160 = LOCAL_TIME ( 13, 25, 43.00000000000000000, #177 ) ;
#161 = DIRECTION ( 'NONE',  ( -3.491481338843133355E-15, 1.224646799147353207E-16, -1.000000000000000000 ) ) ;
#162 = PRODUCT_RELATED_PRODUCT_CATEGORY ( 'detail', '', ( #119 ) ) ;
#163 = FACE_OUTER_BOUND ( 'NONE', #57, .T. ) ;
#164 = FACE_OUTER_BOUND ( 'NONE', #101, .T. ) ;
#165 = APPROVAL ( #176, 'UNSPECIFIED' ) ;
#166 = CC_DESIGN_APPROVAL ( #191, ( #63 ) ) ;
#167 =( LENGTH_UNIT ( ) NAMED_UNIT ( * ) SI_UNIT ( .MILLI., .METRE. ) );
#168 = DIRECTION ( 'NONE',  ( 4.275831445896959482E-31, 1.000000000000000000, 1.224646799147353207E-16 ) ) ;
#169 = PERSON_AND_ORGANIZATION ( #142, #103 ) ;
#170 = DIRECTION ( 'NONE',  ( 0.0000000000000000000, 0.0000000000000000000, 1.000000000000000000 ) ) ;
#171 = CONICAL_SURFACE ( 'NONE', #159, 0.5999999999999953149, 1.134464013796309123 ) ;
#172 = ADVANCED_FACE ( 'NONE', ( #164, #24 ), #91, .T. ) ;
#173 = PERSON_AND_ORGANIZATION ( #142, #103 ) ;
#174 = ADVANCED_BREP_SHAPE_REPRESENTATION ( '105', ( #181, #183, #96 ), #25 ) ;
#175 = ADVANCED_FACE ( 'NONE', ( #95, #79 ), #136, .T. ) ;
#176 = APPROVAL_STATUS ( 'not_yet_approved' ) ;
#177 = COORDINATED_UNIVERSAL_TIME_OFFSET ( 1, 0, .AHEAD. ) ;
#178 = DIRECTION ( 'NONE',  ( -3.491481338843133355E-15, 1.224646799147353207E-16, -1.000000000000000000 ) ) ;
#179 = CYLINDRICAL_SURFACE ( 'NONE', #47, 0.5999999999999963141 ) ;
#180 = ORIENTED_EDGE ( 'NONE', *, *, #149, .T. ) ;
#181 = MANIFOLD_SOLID_BREP ( 'Corps-Déplacer/Copier1[1]', #54 ) ;
#182 = EDGE_LOOP ( 'NONE', ( #9 ) ) ;
#183 = MANIFOLD_SOLID_BREP ( 'Corps-Déplacer/Copier1[2]', #122 ) ;
#184 = AXIS2_PLACEMENT_3D ( 'NONE', #73, #178, #123 ) ;
#185 = CARTESIAN_POINT ( 'NONE',  ( 0.0000000000000000000, 0.0000000000000000000, 0.0000000000000000000 ) ) ;
#186 = DIRECTION ( 'NONE',  ( 1.000000000000000000, 0.0000000000000000000, 0.0000000000000000000 ) ) ;
#187 = APPROVAL_DATE_TIME ( #1, #66 ) ;
#188 = CALENDAR_DATE ( 2021, 6, 10 ) ;
#189 = LOCAL_TIME ( 13, 25, 43.00000000000000000, #34 ) ;
#190 = DIRECTION ( 'NONE',  ( -3.491481338843133355E-15, 1.224646799147353207E-16, -1.000000000000000000 ) ) ;
#191 = APPROVAL ( #32, 'UNSPECIFIED' ) ;
#192 = CIRCLE ( 'NONE', #184, 0.5999999999999953149 ) ;
#193 = CALENDAR_DATE ( 2021, 6, 10 ) ;
#194 = DIRECTION ( 'NONE',  ( 0.0000000000000000000, 1.000000000000000000, 0.0000000000000000000 ) ) ;
#195 = ADVANCED_FACE ( 'NONE', ( #121 ), #153, .T. ) ;
#196 = DIRECTION ( 'NONE',  ( -3.491481338843133355E-15, 1.224646799147353207E-16, -1.000000000000000000 ) ) ;
#197 = DIRECTION ( 'NONE',  ( -4.275831445896958607E-31, -1.000000000000000000, -1.224646799147353207E-16 ) ) ;
#198 = AXIS2_PLACEMENT_3D ( 'NONE', #78, #90, #41 ) ;
#199 = APPROVAL_PERSON_ORGANIZATION ( #120, #66, #16 ) ;
#200 = DIRECTION ( 'NONE',  ( 3.491481338843133355E-15, -1.224646799147353207E-16, 1.000000000000000000 ) ) ;
#201 = EDGE_LOOP ( 'NONE', ( #12 ) ) ;
#202 = LOCAL_TIME ( 13, 25, 43.00000000000000000, #94 ) ;
#203 = CARTESIAN_POINT ( 'NONE',  ( 1.319779946082704535E-13, 0.5999999999999953149, 37.79999999999999716 ) ) ;
ENDSEC;
END-ISO-10303-21;
