ISO-10303-21;
HEADER;
FILE_DESCRIPTION (( 'STEP AP203' ),
    '1' );
FILE_NAME ('104.step',
    '2021-10-06T11:25:42',
    ( '' ),
    ( '' ),
    'SwSTEP 2.0',
    'SolidWorks 2019',
    '' );
FILE_SCHEMA (( 'CONFIG_CONTROL_DESIGN' ));
ENDSEC;

DATA;
#1 = ADVANCED_FACE ( 'NONE', ( #56, #161 ), #176, .T. ) ;
#2 = CIRCLE ( 'NONE', #33, 0.5749999999999999556 ) ;
#3 = CARTESIAN_POINT ( 'NONE',  ( 1.326762908760390423E-13, 2.812049592490913223E-33, 38.00000000000000000 ) ) ;
#4 = DIRECTION ( 'NONE',  ( 0.0000000000000000000, 1.000000000000000000, 0.0000000000000000000 ) ) ;
#5 = LOCAL_TIME ( 13, 25, 42.00000000000000000, #103 ) ;
#6 = CARTESIAN_POINT ( 'NONE',  ( 5.586370142149013368E-14, 0.5749999999999952927, 16.00000000000000000 ) ) ;
#7 = CYLINDRICAL_SURFACE ( 'NONE', #145, 0.5749999999999987343 ) ;
#8 = DIRECTION ( 'NONE',  ( -3.491481338843133355E-15, 1.224646799147353207E-16, -1.000000000000000000 ) ) ;
#9 = CALENDAR_DATE ( 2021, 6, 10 ) ;
#10 = PERSON_AND_ORGANIZATION_ROLE ( 'classification_officer' ) ;
#11 = ORIENTED_EDGE ( 'NONE', *, *, #32, .T. ) ;
#12 = CALENDAR_DATE ( 2021, 6, 10 ) ;
#13 = APPROVAL_DATE_TIME ( #124, #29 ) ;
#14 = CARTESIAN_POINT ( 'NONE',  ( 0.0000000000000000000, 0.0000000000000000000, 0.0000000000000000000 ) ) ;
#15 = CC_DESIGN_PERSON_AND_ORGANIZATION_ASSIGNMENT ( #73, #123, ( #38 ) ) ;
#16 = CC_DESIGN_APPROVAL ( #109, ( #58 ) ) ;
#17 = CLOSED_SHELL ( 'NONE', ( #63, #1, #70 ) ) ;
#18 = DIRECTION ( 'NONE',  ( -4.275831445896958607E-31, -1.000000000000000000, -1.224646799147353207E-16 ) ) ;
#19 = ADVANCED_FACE ( 'NONE', ( #125 ), #43, .F. ) ;
#20 = CARTESIAN_POINT ( 'NONE',  ( 9.361600797995017281E-16, 0.5749999999999952927, 0.2681269034391255968 ) ) ;
#21 = DIRECTION ( 'NONE',  ( -3.491481338843133355E-15, 1.224646799147353207E-16, -1.000000000000000000 ) ) ;
#22 = PERSON_AND_ORGANIZATION ( #108, #89 ) ;
#23 = EDGE_LOOP ( 'NONE', ( #107 ) ) ;
#24 = APPROVAL_STATUS ( 'not_yet_approved' ) ;
#25 = AXIS2_PLACEMENT_3D ( 'NONE', #3, #21, #79 ) ;
#26 = EDGE_LOOP ( 'NONE', ( #138 ) ) ;
#27 = EDGE_LOOP ( 'NONE', ( #86 ) ) ;
#28 = PERSON_AND_ORGANIZATION ( #108, #89 ) ;
#29 = APPROVAL ( #184, 'UNSPECIFIED' ) ;
#30 = COORDINATED_UNIVERSAL_TIME_OFFSET ( 1, 0, .AHEAD. ) ;
#31 = CC_DESIGN_SECURITY_CLASSIFICATION ( #116, ( #38 ) ) ;
#32 = EDGE_CURVE ( 'NONE', #150, #150, #163, .T. ) ;
#33 = AXIS2_PLACEMENT_3D ( 'NONE', #96, #46, #170 ) ;
#34 = FACE_OUTER_BOUND ( 'NONE', #173, .T. ) ;
#35 = DIRECTION ( 'NONE',  ( 4.275831445896958607E-31, 1.000000000000000000, 1.224646799147353207E-16 ) ) ;
#36 = DIRECTION ( 'NONE',  ( -3.491481338843133355E-15, 1.224646799147353207E-16, -1.000000000000000000 ) ) ;
#37 = EDGE_LOOP ( 'NONE', ( #91 ) ) ;
#38 = PRODUCT_DEFINITION_FORMATION_WITH_SPECIFIED_SOURCE ( 'ANY', '', #169, .NOT_KNOWN. ) ;
#39 = PERSON_AND_ORGANIZATION ( #108, #89 ) ;
#40 = APPROVAL ( #69, 'UNSPECIFIED' ) ;
#41 = SHAPE_DEFINITION_REPRESENTATION ( #66, #57 ) ;
#42 = AXIS2_PLACEMENT_3D ( 'NONE', #191, #80, #97 ) ;
#43 = PLANE ( 'NONE',  #42 ) ;
#44 = MANIFOLD_SOLID_BREP ( 'Corps-Déplacer/Copier1[1]', #105 ) ;
#45 = CARTESIAN_POINT ( 'NONE',  ( 5.586370142149013368E-14, -1.959434878635765131E-15, 16.00000000000000000 ) ) ;
#46 = DIRECTION ( 'NONE',  ( -3.491481338843133355E-15, 1.224646799147353207E-16, -1.000000000000000000 ) ) ;
#47 = CARTESIAN_POINT ( 'NONE',  ( 0.0000000000000000000, 0.0000000000000000000, 0.0000000000000000000 ) ) ;
#48 = ADVANCED_FACE ( 'NONE', ( #114 ), #153, .F. ) ;
#49 = CIRCLE ( 'NONE', #67, 0.5749999999999972911 ) ;
#50 = VERTEX_POINT ( 'NONE', #76 ) ;
#51 = COORDINATED_UNIVERSAL_TIME_OFFSET ( 1, 0, .AHEAD. ) ;
#52 = PERSON_AND_ORGANIZATION ( #108, #89 ) ;
#53 = LOCAL_TIME ( 13, 25, 42.00000000000000000, #190 ) ;
#54 = DATE_AND_TIME ( #81, #5 ) ;
#55 = CC_DESIGN_DATE_AND_TIME_ASSIGNMENT ( #155, #139, ( #116 ) ) ;
#56 = FACE_OUTER_BOUND ( 'NONE', #99, .T. ) ;
#57 = ADVANCED_BREP_SHAPE_REPRESENTATION ( '104', ( #44, #115, #192 ), #72 ) ;
#58 = PRODUCT_DEFINITION ( 'UNKNOWN', '', #38, #61 ) ;
#59 =( LENGTH_UNIT ( ) NAMED_UNIT ( * ) SI_UNIT ( .MILLI., .METRE. ) );
#60 = DIRECTION ( 'NONE',  ( 0.0000000000000000000, 1.000000000000000000, 0.0000000000000000000 ) ) ;
#61 = DESIGN_CONTEXT ( 'detailed design', #180, 'design' ) ;
#62 = LOCAL_TIME ( 13, 25, 42.00000000000000000, #51 ) ;
#63 = ADVANCED_FACE ( 'NONE', ( #148 ), #111, .T. ) ;
#64 = FACE_OUTER_BOUND ( 'NONE', #102, .T. ) ;
#65 = CARTESIAN_POINT ( 'NONE',  ( 9.361600797995015308E-16, -3.283607540620165513E-17, 0.2681269034391255413 ) ) ;
#66 = PRODUCT_DEFINITION_SHAPE ( 'NONE', 'NONE',  #58 ) ;
#67 = AXIS2_PLACEMENT_3D ( 'NONE', #45, #195, #93 ) ;
#68 = SECURITY_CLASSIFICATION_LEVEL ( 'unclassified' ) ;
#69 = APPROVAL_STATUS ( 'not_yet_approved' ) ;
#70 = ADVANCED_FACE ( 'NONE', ( #110 ), #133, .T. ) ;
#71 = CONICAL_SURFACE ( 'NONE', #101, 0.3750000000000000000, 0.7853981633974512766 ) ;
#72 =( GEOMETRIC_REPRESENTATION_CONTEXT ( 3 ) GLOBAL_UNCERTAINTY_ASSIGNED_CONTEXT ( ( #98 ) ) GLOBAL_UNIT_ASSIGNED_CONTEXT ( ( #59, #193, #166 ) ) REPRESENTATION_CONTEXT ( 'NONE', 'WORKASPACE' ) );
#73 = PERSON_AND_ORGANIZATION ( #108, #89 ) ;
#74 = PRODUCT_RELATED_PRODUCT_CATEGORY ( 'detail', '', ( #169 ) ) ;
#75 = DIRECTION ( 'NONE',  ( -3.491481338843133355E-15, 1.224646799147353207E-16, -1.000000000000000000 ) ) ;
#76 = CARTESIAN_POINT ( 'NONE',  ( 1.326762908760390423E-13, 0.3749999999999953371, 38.00000000000000000 ) ) ;
#77 = CARTESIAN_POINT ( 'NONE',  ( 1.326762908760390423E-13, -4.653657836759941941E-15, 38.00000000000000000 ) ) ;
#78 = DIRECTION ( 'NONE',  ( -3.491481338843133355E-15, 1.224646799147353207E-16, -1.000000000000000000 ) ) ;
#79 = DIRECTION ( 'NONE',  ( 4.275831445896958607E-31, 1.000000000000000000, 1.224646799147353207E-16 ) ) ;
#80 = DIRECTION ( 'NONE',  ( 3.491481338843133355E-15, -1.224646799147353207E-16, 1.000000000000000000 ) ) ;
#81 = CALENDAR_DATE ( 2021, 6, 10 ) ;
#82 = APPROVAL_PERSON_ORGANIZATION ( #52, #109, #88 ) ;
#83 = EDGE_LOOP ( 'NONE', ( #159 ) ) ;
#84 = CALENDAR_DATE ( 2021, 6, 10 ) ;
#85 = CC_DESIGN_PERSON_AND_ORGANIZATION_ASSIGNMENT ( #39, #202, ( #38 ) ) ;
#86 = ORIENTED_EDGE ( 'NONE', *, *, #189, .F. ) ;
#87 = DATE_TIME_ROLE ( 'creation_date' ) ;
#88 = APPROVAL_ROLE ( '' ) ;
#89 = ORGANIZATION ( 'UNSPECIFIED', 'UNSPECIFIED', '' ) ;
#90 = DATE_AND_TIME ( #12, #131 ) ;
#91 = ORIENTED_EDGE ( 'NONE', *, *, #127, .T. ) ;
#92 = APPROVAL_PERSON_ORGANIZATION ( #200, #40, #187 ) ;
#93 = DIRECTION ( 'NONE',  ( 0.0000000000000000000, 1.000000000000000000, 0.0000000000000000000 ) ) ;
#94 = DIRECTION ( 'NONE',  ( 0.0000000000000000000, 1.000000000000000000, 0.0000000000000000000 ) ) ;
#95 = CC_DESIGN_PERSON_AND_ORGANIZATION_ASSIGNMENT ( #136, #10, ( #116 ) ) ;
#96 = CARTESIAN_POINT ( 'NONE',  ( 1.319779946082704535E-13, -4.629164900776995227E-15, 37.79999999999999716 ) ) ;
#97 = DIRECTION ( 'NONE',  ( -4.275831445896958607E-31, -1.000000000000000000, -1.224646799147353207E-16 ) ) ;
#98 = UNCERTAINTY_MEASURE_WITH_UNIT (LENGTH_MEASURE( 1.000000000000000082E-05 ), #59, 'distance_accuracy_value', 'NONE');
#99 = EDGE_LOOP ( 'NONE', ( #154 ) ) ;
#100 = APPLICATION_PROTOCOL_DEFINITION ( 'international standard', 'config_control_design', 1994, #180 ) ;
#101 = AXIS2_PLACEMENT_3D ( 'NONE', #198, #113, #60 ) ;
#102 = EDGE_LOOP ( 'NONE', ( #144 ) ) ;
#103 = COORDINATED_UNIVERSAL_TIME_OFFSET ( 1, 0, .AHEAD. ) ;
#104 = PERSON_AND_ORGANIZATION ( #108, #89 ) ;
#105 = CLOSED_SHELL ( 'NONE', ( #19, #132, #152, #48 ) ) ;
#106 = DATE_AND_TIME ( #9, #194 ) ;
#107 = ORIENTED_EDGE ( 'NONE', *, *, #127, .F. ) ;
#108 = PERSON ( 'UNSPECIFIED', 'UNSPECIFIED', 'UNSPECIFIED', ('UNSPECIFIED'), ('UNSPECIFIED'), ('UNSPECIFIED') ) ;
#109 = APPROVAL ( #24, 'UNSPECIFIED' ) ;
#110 = FACE_OUTER_BOUND ( 'NONE', #23, .T. ) ;
#111 = CONICAL_SURFACE ( 'NONE', #146, 0.5749999999999952927, 1.134464013796309123 ) ;
#112 = CARTESIAN_POINT ( 'NONE',  ( 5.586370142149013368E-14, 4.311809375152791358E-33, 16.00000000000000000 ) ) ;
#113 = DIRECTION ( 'NONE',  ( -3.491481338843133355E-15, 1.224646799147353207E-16, -1.000000000000000000 ) ) ;
#114 = FACE_OUTER_BOUND ( 'NONE', #172, .T. ) ;
#115 = MANIFOLD_SOLID_BREP ( 'Corps-Déplacer/Copier1[2]', #17 ) ;
#116 = SECURITY_CLASSIFICATION ( '', '', #68 ) ;
#117 = CARTESIAN_POINT ( 'NONE',  ( 9.361600797995015308E-16, -3.283607540620165513E-17, 0.2681269034391255413 ) ) ;
#118 = EDGE_CURVE ( 'NONE', #50, #50, #126, .T. ) ;
#119 = ORIENTED_EDGE ( 'NONE', *, *, #149, .F. ) ;
#120 = DIRECTION ( 'NONE',  ( 1.000000000000000000, 0.0000000000000000000, 0.0000000000000000000 ) ) ;
#121 = CC_DESIGN_APPROVAL ( #40, ( #116 ) ) ;
#122 = ORIENTED_EDGE ( 'NONE', *, *, #118, .F. ) ;
#123 = PERSON_AND_ORGANIZATION_ROLE ( 'creator' ) ;
#124 = DATE_AND_TIME ( #143, #62 ) ;
#125 = FACE_OUTER_BOUND ( 'NONE', #26, .T. ) ;
#126 = CIRCLE ( 'NONE', #140, 0.3750000000000000000 ) ;
#127 = EDGE_CURVE ( 'NONE', #165, #165, #167, .T. ) ;
#128 = VERTEX_POINT ( 'NONE', #130 ) ;
#129 = APPLICATION_CONTEXT ( 'configuration controlled 3d designs of mechanical parts and assemblies' ) ;
#130 = CARTESIAN_POINT ( 'NONE',  ( 1.319779946082704535E-13, 0.5749999999999952927, 37.79999999999999716 ) ) ;
#131 = LOCAL_TIME ( 13, 25, 42.00000000000000000, #174 ) ;
#132 = ADVANCED_FACE ( 'NONE', ( #181, #64 ), #7, .T. ) ;
#133 = PLANE ( 'NONE',  #182 ) ;
#134 = DIRECTION ( 'NONE',  ( 3.349443381543046120E-31, 1.000000000000000000, 9.427844978134897854E-17 ) ) ;
#135 = CC_DESIGN_PERSON_AND_ORGANIZATION_ASSIGNMENT ( #104, #137, ( #58 ) ) ;
#136 = PERSON_AND_ORGANIZATION ( #108, #89 ) ;
#137 = PERSON_AND_ORGANIZATION_ROLE ( 'creator' ) ;
#138 = ORIENTED_EDGE ( 'NONE', *, *, #189, .T. ) ;
#139 = DATE_TIME_ROLE ( 'classification_date' ) ;
#140 = AXIS2_PLACEMENT_3D ( 'NONE', #77, #36, #4 ) ;
#141 = CC_DESIGN_DATE_AND_TIME_ASSIGNMENT ( #90, #87, ( #58 ) ) ;
#142 = DIRECTION ( 'NONE',  ( 0.0000000000000000000, 0.0000000000000000000, 1.000000000000000000 ) ) ;
#143 = CALENDAR_DATE ( 2021, 6, 10 ) ;
#144 = ORIENTED_EDGE ( 'NONE', *, *, #149, .T. ) ;
#145 = AXIS2_PLACEMENT_3D ( 'NONE', #47, #8, #35 ) ;
#146 = AXIS2_PLACEMENT_3D ( 'NONE', #65, #197, #164 ) ;
#147 = CARTESIAN_POINT ( 'NONE',  ( 5.586370142149013368E-14, 0.5749999999999952927, 16.00000000000000000 ) ) ;
#148 = FACE_OUTER_BOUND ( 'NONE', #156, .T. ) ;
#149 = EDGE_CURVE ( 'NONE', #128, #128, #2, .T. ) ;
#150 = VERTEX_POINT ( 'NONE', #20 ) ;
#151 = AXIS2_PLACEMENT_3D ( 'NONE', #14, #75, #203 ) ;
#152 = ADVANCED_FACE ( 'NONE', ( #34, #168 ), #71, .T. ) ;
#153 = PLANE ( 'NONE',  #25 ) ;
#154 = ORIENTED_EDGE ( 'NONE', *, *, #32, .F. ) ;
#155 = DATE_AND_TIME ( #84, #53 ) ;
#156 = EDGE_LOOP ( 'NONE', ( #11 ) ) ;
#157 = MECHANICAL_CONTEXT ( 'NONE', #129, 'mechanical' ) ;
#158 = CC_DESIGN_PERSON_AND_ORGANIZATION_ASSIGNMENT ( #28, #185, ( #169 ) ) ;
#159 = ORIENTED_EDGE ( 'NONE', *, *, #118, .T. ) ;
#160 = APPROVAL_ROLE ( '' ) ;
#161 = FACE_OUTER_BOUND ( 'NONE', #37, .T. ) ;
#162 = APPROVAL_PERSON_ORGANIZATION ( #22, #29, #160 ) ;
#163 = CIRCLE ( 'NONE', #177, 0.5749999999999952927 ) ;
#164 = DIRECTION ( 'NONE',  ( -3.349443381543046120E-31, -1.000000000000000000, -9.427844978134897854E-17 ) ) ;
#165 = VERTEX_POINT ( 'NONE', #147 ) ;
#166 =( NAMED_UNIT ( * ) SI_UNIT ( $, .STERADIAN. ) SOLID_ANGLE_UNIT ( ) );
#167 = CIRCLE ( 'NONE', #175, 0.5749999999999972911 ) ;
#168 = FACE_BOUND ( 'NONE', #83, .T. ) ;
#169 = PRODUCT ( '104', '104', '', ( #157 ) ) ;
#170 = DIRECTION ( 'NONE',  ( 0.0000000000000000000, 1.000000000000000000, 0.0000000000000000000 ) ) ;
#171 = CARTESIAN_POINT ( 'NONE',  ( 0.0000000000000000000, 0.0000000000000000000, 0.0000000000000000000 ) ) ;
#172 = EDGE_LOOP ( 'NONE', ( #122 ) ) ;
#173 = EDGE_LOOP ( 'NONE', ( #119 ) ) ;
#174 = COORDINATED_UNIVERSAL_TIME_OFFSET ( 1, 0, .AHEAD. ) ;
#175 = AXIS2_PLACEMENT_3D ( 'NONE', #178, #179, #94 ) ;
#176 = CYLINDRICAL_SURFACE ( 'NONE', #151, 0.5749999999999962919 ) ;
#177 = AXIS2_PLACEMENT_3D ( 'NONE', #117, #78, #134 ) ;
#178 = CARTESIAN_POINT ( 'NONE',  ( 5.586370142149013368E-14, -1.959434878635765131E-15, 16.00000000000000000 ) ) ;
#179 = DIRECTION ( 'NONE',  ( -3.491481338843133355E-15, 1.224646799147353207E-16, -1.000000000000000000 ) ) ;
#180 = APPLICATION_CONTEXT ( 'configuration controlled 3d designs of mechanical parts and assemblies' ) ;
#181 = FACE_OUTER_BOUND ( 'NONE', #27, .T. ) ;
#182 = AXIS2_PLACEMENT_3D ( 'NONE', #112, #183, #18 ) ;
#183 = DIRECTION ( 'NONE',  ( 3.491481338843133355E-15, -1.224646799147353207E-16, 1.000000000000000000 ) ) ;
#184 = APPROVAL_STATUS ( 'not_yet_approved' ) ;
#185 = PERSON_AND_ORGANIZATION_ROLE ( 'design_owner' ) ;
#186 = CC_DESIGN_APPROVAL ( #29, ( #38 ) ) ;
#187 = APPROVAL_ROLE ( '' ) ;
#188 = APPROVAL_DATE_TIME ( #106, #109 ) ;
#189 = EDGE_CURVE ( 'NONE', #196, #196, #49, .T. ) ;
#190 = COORDINATED_UNIVERSAL_TIME_OFFSET ( 1, 0, .AHEAD. ) ;
#191 = CARTESIAN_POINT ( 'NONE',  ( 5.586370142149013368E-14, 4.311809375152791358E-33, 16.00000000000000000 ) ) ;
#192 = AXIS2_PLACEMENT_3D ( 'NONE', #171, #142, #120 ) ;
#193 =( NAMED_UNIT ( * ) PLANE_ANGLE_UNIT ( ) SI_UNIT ( $, .RADIAN. ) );
#194 = LOCAL_TIME ( 13, 25, 42.00000000000000000, #30 ) ;
#195 = DIRECTION ( 'NONE',  ( -3.491481338843133355E-15, 1.224646799147353207E-16, -1.000000000000000000 ) ) ;
#196 = VERTEX_POINT ( 'NONE', #6 ) ;
#197 = DIRECTION ( 'NONE',  ( 3.491481338843133355E-15, -1.224646799147353207E-16, 1.000000000000000000 ) ) ;
#198 = CARTESIAN_POINT ( 'NONE',  ( 1.326762908760390423E-13, -4.653657836759941941E-15, 38.00000000000000000 ) ) ;
#199 = APPROVAL_DATE_TIME ( #54, #40 ) ;
#200 = PERSON_AND_ORGANIZATION ( #108, #89 ) ;
#201 = APPLICATION_PROTOCOL_DEFINITION ( 'international standard', 'config_control_design', 1994, #129 ) ;
#202 = PERSON_AND_ORGANIZATION_ROLE ( 'design_supplier' ) ;
#203 = DIRECTION ( 'NONE',  ( 4.275831445896958607E-31, 1.000000000000000000, 1.224646799147353207E-16 ) ) ;
ENDSEC;
END-ISO-10303-21;
