ISO-10303-21;
HEADER;
FILE_DESCRIPTION (( 'STEP AP203' ),
    '1' );
FILE_NAME ('103.step',
    '2021-10-06T11:25:41',
    ( '' ),
    ( '' ),
    'SwSTEP 2.0',
    'SolidWorks 2019',
    '' );
FILE_SCHEMA (( 'CONFIG_CONTROL_DESIGN' ));
ENDSEC;

DATA;
#1 = AXIS2_PLACEMENT_3D ( 'NONE', #53, #20, #152 ) ;
#2 = APPLICATION_CONTEXT ( 'configuration controlled 3d designs of mechanical parts and assemblies' ) ;
#3 = APPROVAL ( #150, 'UNSPECIFIED' ) ;
#4 = DIRECTION ( 'NONE',  ( -3.491481338843133355E-15, 1.224646799147353207E-16, -1.000000000000000000 ) ) ;
#5 = DATE_AND_TIME ( #56, #18 ) ;
#6 = EDGE_LOOP ( 'NONE', ( #105 ) ) ;
#7 = PERSON_AND_ORGANIZATION ( #117, #144 ) ;
#8 = EDGE_LOOP ( 'NONE', ( #10 ) ) ;
#9 = COORDINATED_UNIVERSAL_TIME_OFFSET ( 1, 0, .AHEAD. ) ;
#10 = ORIENTED_EDGE ( 'NONE', *, *, #66, .T. ) ;
#11 = LOCAL_TIME ( 13, 25, 41.00000000000000000, #166 ) ;
#12 = CARTESIAN_POINT ( 'NONE',  ( 1.326762908760390423E-13, 0.3499999999999953704, 38.00000000000000000 ) ) ;
#13 = CARTESIAN_POINT ( 'NONE',  ( 5.586370142149013368E-14, 4.124339402320059157E-33, 16.00000000000000000 ) ) ;
#14 = CARTESIAN_POINT ( 'NONE',  ( 1.319779946082704535E-13, -4.629164900776995227E-15, 37.79999999999999716 ) ) ;
#15 = COORDINATED_UNIVERSAL_TIME_OFFSET ( 1, 0, .AHEAD. ) ;
#16 = AXIS2_PLACEMENT_3D ( 'NONE', #106, #168, #128 ) ;
#17 = CC_DESIGN_PERSON_AND_ORGANIZATION_ASSIGNMENT ( #124, #153, ( #148 ) ) ;
#18 = LOCAL_TIME ( 13, 25, 41.00000000000000000, #135 ) ;
#19 = DIRECTION ( 'NONE',  ( -3.491481338843133355E-15, 1.224646799147353207E-16, -1.000000000000000000 ) ) ;
#20 = DIRECTION ( 'NONE',  ( 3.491481338843133355E-15, -1.224646799147353207E-16, 1.000000000000000000 ) ) ;
#21 = APPROVAL_ROLE ( '' ) ;
#22 = SECURITY_CLASSIFICATION_LEVEL ( 'unclassified' ) ;
#23 = ORIENTED_EDGE ( 'NONE', *, *, #167, .F. ) ;
#24 = FACE_OUTER_BOUND ( 'NONE', #139, .T. ) ;
#25 = PERSON_AND_ORGANIZATION ( #117, #144 ) ;
#26 = DIRECTION ( 'NONE',  ( 0.0000000000000000000, 1.000000000000000000, 0.0000000000000000000 ) ) ;
#27 = AXIS2_PLACEMENT_3D ( 'NONE', #40, #4, #50 ) ;
#28 = VERTEX_POINT ( 'NONE', #12 ) ;
#29 = APPROVAL_PERSON_ORGANIZATION ( #129, #91, #118 ) ;
#30 = CC_DESIGN_DATE_AND_TIME_ASSIGNMENT ( #72, #77, ( #85 ) ) ;
#31 = CLOSED_SHELL ( 'NONE', ( #147, #201, #70, #88 ) ) ;
#32 = CIRCLE ( 'NONE', #143, 0.5500000000000000444 ) ;
#33 = CARTESIAN_POINT ( 'NONE',  ( 1.326762908760390423E-13, 2.624579619658181365E-33, 38.00000000000000000 ) ) ;
#34 = PERSON_AND_ORGANIZATION ( #117, #144 ) ;
#35 = EDGE_LOOP ( 'NONE', ( #110 ) ) ;
#36 = CALENDAR_DATE ( 2021, 6, 10 ) ;
#37 = FACE_OUTER_BOUND ( 'NONE', #197, .T. ) ;
#38 = DATE_AND_TIME ( #107, #11 ) ;
#39 = UNCERTAINTY_MEASURE_WITH_UNIT (LENGTH_MEASURE( 1.000000000000000082E-05 ), #44, 'distance_accuracy_value', 'NONE');
#40 = CARTESIAN_POINT ( 'NONE',  ( 1.326762908760390423E-13, -4.653657836759941941E-15, 38.00000000000000000 ) ) ;
#41 = PERSON_AND_ORGANIZATION ( #117, #144 ) ;
#42 = DIRECTION ( 'NONE',  ( 0.0000000000000000000, 1.000000000000000000, 0.0000000000000000000 ) ) ;
#43 = MANIFOLD_SOLID_BREP ( 'Corps-Déplacer/Copier1[1]', #31 ) ;
#44 =( LENGTH_UNIT ( ) NAMED_UNIT ( * ) SI_UNIT ( .MILLI., .METRE. ) );
#45 = ADVANCED_FACE ( 'NONE', ( #37 ), #60, .T. ) ;
#46 = FACE_OUTER_BOUND ( 'NONE', #8, .T. ) ;
#47 = APPROVAL_DATE_TIME ( #195, #91 ) ;
#48 = CONICAL_SURFACE ( 'NONE', #16, 0.5499999999999953815, 1.134464013796309123 ) ;
#49 = CIRCLE ( 'NONE', #140, 0.5499999999999972689 ) ;
#50 = DIRECTION ( 'NONE',  ( 0.0000000000000000000, 1.000000000000000000, 0.0000000000000000000 ) ) ;
#51 = CC_DESIGN_SECURITY_CLASSIFICATION ( #85, ( #148 ) ) ;
#52 = APPROVAL ( #183, 'UNSPECIFIED' ) ;
#53 = CARTESIAN_POINT ( 'NONE',  ( 5.586370142149013368E-14, 4.124339402320059157E-33, 16.00000000000000000 ) ) ;
#54 = CARTESIAN_POINT ( 'NONE',  ( 5.586370142149013368E-14, -1.959434878635765131E-15, 16.00000000000000000 ) ) ;
#55 = DIRECTION ( 'NONE',  ( 0.0000000000000000000, 1.000000000000000000, 0.0000000000000000000 ) ) ;
#56 = CALENDAR_DATE ( 2021, 6, 10 ) ;
#57 = ADVANCED_FACE ( 'NONE', ( #123, #126 ), #136, .T. ) ;
#58 = CLOSED_SHELL ( 'NONE', ( #109, #57, #45 ) ) ;
#59 = AXIS2_PLACEMENT_3D ( 'NONE', #13, #193, #160 ) ;
#60 = PLANE ( 'NONE',  #1 ) ;
#61 = CARTESIAN_POINT ( 'NONE',  ( 1.326762908760390423E-13, -4.653657836759941941E-15, 38.00000000000000000 ) ) ;
#62 = VERTEX_POINT ( 'NONE', #131 ) ;
#63 = CIRCLE ( 'NONE', #190, 0.5499999999999972689 ) ;
#64 = CARTESIAN_POINT ( 'NONE',  ( 0.0000000000000000000, 0.0000000000000000000, 0.0000000000000000000 ) ) ;
#65 = DIRECTION ( 'NONE',  ( 4.275831445896958607E-31, 1.000000000000000000, 1.224646799147353207E-16 ) ) ;
#66 = EDGE_CURVE ( 'NONE', #159, #159, #63, .T. ) ;
#67 = DATE_AND_TIME ( #203, #177 ) ;
#68 = CC_DESIGN_PERSON_AND_ORGANIZATION_ASSIGNMENT ( #25, #81, ( #149 ) ) ;
#69 = ORIENTED_EDGE ( 'NONE', *, *, #167, .T. ) ;
#70 = ADVANCED_FACE ( 'NONE', ( #151, #74 ), #79, .T. ) ;
#71 = DIRECTION ( 'NONE',  ( 4.275831445896958607E-31, 1.000000000000000000, 1.224646799147353207E-16 ) ) ;
#72 = DATE_AND_TIME ( #36, #116 ) ;
#73 = CC_DESIGN_APPROVAL ( #52, ( #85 ) ) ;
#74 = FACE_BOUND ( 'NONE', #95, .T. ) ;
#75 = PERSON_AND_ORGANIZATION ( #117, #144 ) ;
#76 = CC_DESIGN_PERSON_AND_ORGANIZATION_ASSIGNMENT ( #101, #162, ( #93 ) ) ;
#77 = DATE_TIME_ROLE ( 'classification_date' ) ;
#78 = EDGE_LOOP ( 'NONE', ( #69 ) ) ;
#79 = CONICAL_SURFACE ( 'NONE', #27, 0.3500000000000000333, 0.7853981633974512766 ) ;
#80 = CARTESIAN_POINT ( 'NONE',  ( 0.0000000000000000000, 0.0000000000000000000, 0.0000000000000000000 ) ) ;
#81 = PERSON_AND_ORGANIZATION_ROLE ( 'design_owner' ) ;
#82 = CC_DESIGN_PERSON_AND_ORGANIZATION_ASSIGNMENT ( #75, #171, ( #148 ) ) ;
#83 = DIRECTION ( 'NONE',  ( -3.491481338843133355E-15, 1.224646799147353207E-16, -1.000000000000000000 ) ) ;
#84 = ADVANCED_BREP_SHAPE_REPRESENTATION ( '103', ( #43, #115, #130 ), #194 ) ;
#85 = SECURITY_CLASSIFICATION ( '', '', #22 ) ;
#86 = DIRECTION ( 'NONE',  ( 0.0000000000000000000, 1.000000000000000000, 0.0000000000000000000 ) ) ;
#87 = CARTESIAN_POINT ( 'NONE',  ( 5.586370142149013368E-14, 0.5499999999999953815, 16.00000000000000000 ) ) ;
#88 = ADVANCED_FACE ( 'NONE', ( #120 ), #182, .F. ) ;
#89 = APPROVAL_STATUS ( 'not_yet_approved' ) ;
#90 = PRODUCT_DEFINITION_SHAPE ( 'NONE', 'NONE',  #93 ) ;
#91 = APPROVAL ( #89, 'UNSPECIFIED' ) ;
#92 = AXIS2_PLACEMENT_3D ( 'NONE', #33, #19, #71 ) ;
#93 = PRODUCT_DEFINITION ( 'UNKNOWN', '', #148, #185 ) ;
#94 = DIRECTION ( 'NONE',  ( -3.491481338843133355E-15, 1.224646799147353207E-16, -1.000000000000000000 ) ) ;
#95 = EDGE_LOOP ( 'NONE', ( #165 ) ) ;
#96 = PERSON_AND_ORGANIZATION_ROLE ( 'classification_officer' ) ;
#97 = APPLICATION_CONTEXT ( 'configuration controlled 3d designs of mechanical parts and assemblies' ) ;
#98 = DIRECTION ( 'NONE',  ( 4.275831445896958607E-31, 1.000000000000000000, 1.224646799147353207E-16 ) ) ;
#99 = CYLINDRICAL_SURFACE ( 'NONE', #199, 0.5499999999999986011 ) ;
#100 = APPLICATION_PROTOCOL_DEFINITION ( 'international standard', 'config_control_design', 1994, #97 ) ;
#101 = PERSON_AND_ORGANIZATION ( #117, #144 ) ;
#102 = CIRCLE ( 'NONE', #125, 0.3500000000000000333 ) ;
#103 = APPROVAL_PERSON_ORGANIZATION ( #7, #52, #21 ) ;
#104 = ORIENTED_EDGE ( 'NONE', *, *, #178, .F. ) ;
#105 = ORIENTED_EDGE ( 'NONE', *, *, #119, .F. ) ;
#106 = CARTESIAN_POINT ( 'NONE',  ( 8.954574676343057607E-16, -3.140841995375809794E-17, 0.2564692119852504670 ) ) ;
#107 = CALENDAR_DATE ( 2021, 6, 10 ) ;
#108 = LOCAL_TIME ( 13, 25, 41.00000000000000000, #15 ) ;
#109 = ADVANCED_FACE ( 'NONE', ( #184 ), #48, .T. ) ;
#110 = ORIENTED_EDGE ( 'NONE', *, *, #178, .T. ) ;
#111 = DIRECTION ( 'NONE',  ( -3.491481338843133355E-15, 1.224646799147353207E-16, -1.000000000000000000 ) ) ;
#112 =( NAMED_UNIT ( * ) SI_UNIT ( $, .STERADIAN. ) SOLID_ANGLE_UNIT ( ) );
#113 = VERTEX_POINT ( 'NONE', #114 ) ;
#114 = CARTESIAN_POINT ( 'NONE',  ( 1.319779946082704535E-13, 0.5499999999999953815, 37.79999999999999716 ) ) ;
#115 = MANIFOLD_SOLID_BREP ( 'Corps-Déplacer/Copier1[2]', #58 ) ;
#116 = LOCAL_TIME ( 13, 25, 41.00000000000000000, #9 ) ;
#117 = PERSON ( 'UNSPECIFIED', 'UNSPECIFIED', 'UNSPECIFIED', ('UNSPECIFIED'), ('UNSPECIFIED'), ('UNSPECIFIED') ) ;
#118 = APPROVAL_ROLE ( '' ) ;
#119 = EDGE_CURVE ( 'NONE', #113, #113, #32, .T. ) ;
#120 = FACE_OUTER_BOUND ( 'NONE', #172, .T. ) ;
#121 = APPROVAL_DATE_TIME ( #38, #52 ) ;
#122 = ORIENTED_EDGE ( 'NONE', *, *, #119, .T. ) ;
#123 = FACE_OUTER_BOUND ( 'NONE', #137, .T. ) ;
#124 = PERSON_AND_ORGANIZATION ( #117, #144 ) ;
#125 = AXIS2_PLACEMENT_3D ( 'NONE', #61, #132, #42 ) ;
#126 = FACE_OUTER_BOUND ( 'NONE', #78, .T. ) ;
#127 = PRODUCT_RELATED_PRODUCT_CATEGORY ( 'detail', '', ( #149 ) ) ;
#128 = DIRECTION ( 'NONE',  ( -3.501690807976821919E-31, -1.000000000000000000, -9.856383386231941411E-17 ) ) ;
#129 = PERSON_AND_ORGANIZATION ( #117, #144 ) ;
#130 = AXIS2_PLACEMENT_3D ( 'NONE', #80, #173, #174 ) ;
#131 = CARTESIAN_POINT ( 'NONE',  ( 5.586370142149013368E-14, 0.5499999999999953815, 16.00000000000000000 ) ) ;
#132 = DIRECTION ( 'NONE',  ( -3.491481338843133355E-15, 1.224646799147353207E-16, -1.000000000000000000 ) ) ;
#133 = DATE_TIME_ROLE ( 'creation_date' ) ;
#134 = CC_DESIGN_APPROVAL ( #91, ( #93 ) ) ;
#135 = COORDINATED_UNIVERSAL_TIME_OFFSET ( 1, 0, .AHEAD. ) ;
#136 = CYLINDRICAL_SURFACE ( 'NONE', #180, 0.5499999999999963807 ) ;
#137 = EDGE_LOOP ( 'NONE', ( #104 ) ) ;
#138 = APPROVAL_ROLE ( '' ) ;
#139 = EDGE_LOOP ( 'NONE', ( #122 ) ) ;
#140 = AXIS2_PLACEMENT_3D ( 'NONE', #141, #192, #26 ) ;
#141 = CARTESIAN_POINT ( 'NONE',  ( 5.586370142149013368E-14, -1.959434878635765131E-15, 16.00000000000000000 ) ) ;
#142 = FACE_OUTER_BOUND ( 'NONE', #170, .T. ) ;
#143 = AXIS2_PLACEMENT_3D ( 'NONE', #14, #176, #86 ) ;
#144 = ORGANIZATION ( 'UNSPECIFIED', 'UNSPECIFIED', '' ) ;
#145 = VERTEX_POINT ( 'NONE', #191 ) ;
#146 = COORDINATED_UNIVERSAL_TIME_OFFSET ( 1, 0, .AHEAD. ) ;
#147 = ADVANCED_FACE ( 'NONE', ( #46 ), #158, .F. ) ;
#148 = PRODUCT_DEFINITION_FORMATION_WITH_SPECIFIED_SOURCE ( 'ANY', '', #149, .NOT_KNOWN. ) ;
#149 = PRODUCT ( '103', '103', '', ( #175 ) ) ;
#150 = APPROVAL_STATUS ( 'not_yet_approved' ) ;
#151 = FACE_OUTER_BOUND ( 'NONE', #6, .T. ) ;
#152 = DIRECTION ( 'NONE',  ( -4.275831445896958607E-31, -1.000000000000000000, -1.224646799147353207E-16 ) ) ;
#153 = PERSON_AND_ORGANIZATION_ROLE ( 'creator' ) ;
#154 = ORIENTED_EDGE ( 'NONE', *, *, #189, .F. ) ;
#155 = SHAPE_DEFINITION_REPRESENTATION ( #90, #84 ) ;
#156 = DIRECTION ( 'NONE',  ( 3.501690807976821919E-31, 1.000000000000000000, 9.856383386231941411E-17 ) ) ;
#157 = AXIS2_PLACEMENT_3D ( 'NONE', #188, #83, #156 ) ;
#158 = PLANE ( 'NONE',  #59 ) ;
#159 = VERTEX_POINT ( 'NONE', #87 ) ;
#160 = DIRECTION ( 'NONE',  ( -4.275831445896958607E-31, -1.000000000000000000, -1.224646799147353207E-16 ) ) ;
#161 =( NAMED_UNIT ( * ) PLANE_ANGLE_UNIT ( ) SI_UNIT ( $, .RADIAN. ) );
#162 = PERSON_AND_ORGANIZATION_ROLE ( 'creator' ) ;
#163 = CC_DESIGN_APPROVAL ( #3, ( #148 ) ) ;
#164 = CIRCLE ( 'NONE', #157, 0.5499999999999953815 ) ;
#165 = ORIENTED_EDGE ( 'NONE', *, *, #189, .T. ) ;
#166 = COORDINATED_UNIVERSAL_TIME_OFFSET ( 1, 0, .AHEAD. ) ;
#167 = EDGE_CURVE ( 'NONE', #62, #62, #49, .T. ) ;
#168 = DIRECTION ( 'NONE',  ( 3.491481338843133355E-15, -1.224646799147353207E-16, 1.000000000000000000 ) ) ;
#169 = APPROVAL_PERSON_ORGANIZATION ( #41, #3, #138 ) ;
#170 = EDGE_LOOP ( 'NONE', ( #198 ) ) ;
#171 = PERSON_AND_ORGANIZATION_ROLE ( 'design_supplier' ) ;
#172 = EDGE_LOOP ( 'NONE', ( #154 ) ) ;
#173 = DIRECTION ( 'NONE',  ( 0.0000000000000000000, 0.0000000000000000000, 1.000000000000000000 ) ) ;
#174 = DIRECTION ( 'NONE',  ( 1.000000000000000000, 0.0000000000000000000, 0.0000000000000000000 ) ) ;
#175 = MECHANICAL_CONTEXT ( 'NONE', #2, 'mechanical' ) ;
#176 = DIRECTION ( 'NONE',  ( -3.491481338843133355E-15, 1.224646799147353207E-16, -1.000000000000000000 ) ) ;
#177 = LOCAL_TIME ( 13, 25, 41.00000000000000000, #146 ) ;
#178 = EDGE_CURVE ( 'NONE', #145, #145, #164, .T. ) ;
#179 = CALENDAR_DATE ( 2021, 6, 10 ) ;
#180 = AXIS2_PLACEMENT_3D ( 'NONE', #187, #111, #98 ) ;
#181 = CC_DESIGN_PERSON_AND_ORGANIZATION_ASSIGNMENT ( #34, #96, ( #85 ) ) ;
#182 = PLANE ( 'NONE',  #92 ) ;
#183 = APPROVAL_STATUS ( 'not_yet_approved' ) ;
#184 = FACE_OUTER_BOUND ( 'NONE', #35, .T. ) ;
#185 = DESIGN_CONTEXT ( 'detailed design', #97, 'design' ) ;
#186 = APPROVAL_DATE_TIME ( #5, #3 ) ;
#187 = CARTESIAN_POINT ( 'NONE',  ( 0.0000000000000000000, 0.0000000000000000000, 0.0000000000000000000 ) ) ;
#188 = CARTESIAN_POINT ( 'NONE',  ( 8.954574676343057607E-16, -3.140841995375809794E-17, 0.2564692119852504670 ) ) ;
#189 = EDGE_CURVE ( 'NONE', #28, #28, #102, .T. ) ;
#190 = AXIS2_PLACEMENT_3D ( 'NONE', #54, #94, #55 ) ;
#191 = CARTESIAN_POINT ( 'NONE',  ( 8.954574676343059579E-16, 0.5499999999999953815, 0.2564692119852505225 ) ) ;
#192 = DIRECTION ( 'NONE',  ( -3.491481338843133355E-15, 1.224646799147353207E-16, -1.000000000000000000 ) ) ;
#193 = DIRECTION ( 'NONE',  ( 3.491481338843133355E-15, -1.224646799147353207E-16, 1.000000000000000000 ) ) ;
#194 =( GEOMETRIC_REPRESENTATION_CONTEXT ( 3 ) GLOBAL_UNCERTAINTY_ASSIGNED_CONTEXT ( ( #39 ) ) GLOBAL_UNIT_ASSIGNED_CONTEXT ( ( #44, #161, #112 ) ) REPRESENTATION_CONTEXT ( 'NONE', 'WORKASPACE' ) );
#195 = DATE_AND_TIME ( #179, #108 ) ;
#196 = CC_DESIGN_DATE_AND_TIME_ASSIGNMENT ( #67, #133, ( #93 ) ) ;
#197 = EDGE_LOOP ( 'NONE', ( #23 ) ) ;
#198 = ORIENTED_EDGE ( 'NONE', *, *, #66, .F. ) ;
#199 = AXIS2_PLACEMENT_3D ( 'NONE', #64, #202, #65 ) ;
#200 = APPLICATION_PROTOCOL_DEFINITION ( 'international standard', 'config_control_design', 1994, #2 ) ;
#201 = ADVANCED_FACE ( 'NONE', ( #142, #24 ), #99, .T. ) ;
#202 = DIRECTION ( 'NONE',  ( -3.491481338843133355E-15, 1.224646799147353207E-16, -1.000000000000000000 ) ) ;
#203 = CALENDAR_DATE ( 2021, 6, 10 ) ;
ENDSEC;
END-ISO-10303-21;
