ISO-10303-21;
HEADER;
FILE_DESCRIPTION (( 'STEP AP203' ),
    '1' );
FILE_NAME ('102.step',
    '2021-10-06T11:25:40',
    ( '' ),
    ( '' ),
    'SwSTEP 2.0',
    'SolidWorks 2019',
    '' );
FILE_SCHEMA (( 'CONFIG_CONTROL_DESIGN' ));
ENDSEC;

DATA;
#1 = PLANE ( 'NONE',  #46 ) ;
#2 = VERTEX_POINT ( 'NONE', #62 ) ;
#3 = CC_DESIGN_SECURITY_CLASSIFICATION ( #129, ( #128 ) ) ;
#4 = DIRECTION ( 'NONE',  ( -3.491481338843133355E-15, 1.224646799147353207E-16, -1.000000000000000000 ) ) ;
#5 = CIRCLE ( 'NONE', #102, 0.5249999999999973577 ) ;
#6 = APPROVAL_STATUS ( 'not_yet_approved' ) ;
#7 = ADVANCED_FACE ( 'NONE', ( #48, #31 ), #175, .T. ) ;
#8 = DIRECTION ( 'NONE',  ( -3.491481338843133355E-15, 1.224646799147353207E-16, -1.000000000000000000 ) ) ;
#9 = AXIS2_PLACEMENT_3D ( 'NONE', #78, #148, #10 ) ;
#10 = DIRECTION ( 'NONE',  ( 3.668437989309053182E-31, 1.000000000000000000, 1.032573497605251469E-16 ) ) ;
#11 = CARTESIAN_POINT ( 'NONE',  ( 8.547548554691096947E-16, 0.5249999999999953593, 0.2448115205313753928 ) ) ;
#12 = CC_DESIGN_DATE_AND_TIME_ASSIGNMENT ( #103, #84, ( #129 ) ) ;
#13 = CARTESIAN_POINT ( 'NONE',  ( 1.326762908760390423E-13, -4.653657836759941941E-15, 38.00000000000000000 ) ) ;
#14 = AXIS2_PLACEMENT_3D ( 'NONE', #159, #8, #75 ) ;
#15 = DIRECTION ( 'NONE',  ( 3.491481338843133355E-15, -1.224646799147353207E-16, 1.000000000000000000 ) ) ;
#16 = DATE_AND_TIME ( #136, #63 ) ;
#17 = DATE_AND_TIME ( #124, #147 ) ;
#18 = AXIS2_PLACEMENT_3D ( 'NONE', #30, #188, #29 ) ;
#19 =( GEOMETRIC_REPRESENTATION_CONTEXT ( 3 ) GLOBAL_UNCERTAINTY_ASSIGNED_CONTEXT ( ( #87 ) ) GLOBAL_UNIT_ASSIGNED_CONTEXT ( ( #85, #51, #118 ) ) REPRESENTATION_CONTEXT ( 'NONE', 'WORKASPACE' ) );
#20 = AXIS2_PLACEMENT_3D ( 'NONE', #131, #4, #190 ) ;
#21 = SECURITY_CLASSIFICATION_LEVEL ( 'unclassified' ) ;
#22 = DATE_TIME_ROLE ( 'creation_date' ) ;
#23 = APPLICATION_PROTOCOL_DEFINITION ( 'international standard', 'config_control_design', 1994, #72 ) ;
#24 = EDGE_LOOP ( 'NONE', ( #108 ) ) ;
#25 = ORIENTED_EDGE ( 'NONE', *, *, #171, .F. ) ;
#26 = DIRECTION ( 'NONE',  ( -3.491481338843133355E-15, 1.224646799147353207E-16, -1.000000000000000000 ) ) ;
#27 = FACE_OUTER_BOUND ( 'NONE', #184, .T. ) ;
#28 = CC_DESIGN_PERSON_AND_ORGANIZATION_ASSIGNMENT ( #83, #153, ( #129 ) ) ;
#29 = DIRECTION ( 'NONE',  ( -4.275831445896958607E-31, -1.000000000000000000, -1.224646799147353207E-16 ) ) ;
#30 = CARTESIAN_POINT ( 'NONE',  ( 5.586370142149013368E-14, 3.936869429487326956E-33, 16.00000000000000000 ) ) ;
#31 = FACE_OUTER_BOUND ( 'NONE', #73, .T. ) ;
#32 = MECHANICAL_CONTEXT ( 'NONE', #72, 'mechanical' ) ;
#33 = APPROVAL_ROLE ( '' ) ;
#34 = PERSON_AND_ORGANIZATION ( #113, #185 ) ;
#35 = AXIS2_PLACEMENT_3D ( 'NONE', #117, #170, #116 ) ;
#36 = CC_DESIGN_APPROVAL ( #65, ( #128 ) ) ;
#37 = PERSON_AND_ORGANIZATION ( #113, #185 ) ;
#38 = APPROVAL_ROLE ( '' ) ;
#39 = DATE_AND_TIME ( #106, #88 ) ;
#40 = ORIENTED_EDGE ( 'NONE', *, *, #69, .T. ) ;
#41 = APPROVAL_PERSON_ORGANIZATION ( #100, #183, #33 ) ;
#42 = FACE_OUTER_BOUND ( 'NONE', #24, .T. ) ;
#43 = DIRECTION ( 'NONE',  ( 0.0000000000000000000, 1.000000000000000000, 0.0000000000000000000 ) ) ;
#44 = ADVANCED_FACE ( 'NONE', ( #174 ), #111, .T. ) ;
#45 = DIRECTION ( 'NONE',  ( 0.0000000000000000000, 1.000000000000000000, 0.0000000000000000000 ) ) ;
#46 = AXIS2_PLACEMENT_3D ( 'NONE', #162, #15, #96 ) ;
#47 = ORIENTED_EDGE ( 'NONE', *, *, #191, .T. ) ;
#48 = FACE_OUTER_BOUND ( 'NONE', #56, .T. ) ;
#49 = COORDINATED_UNIVERSAL_TIME_OFFSET ( 1, 0, .AHEAD. ) ;
#50 = PERSON_AND_ORGANIZATION ( #113, #185 ) ;
#51 =( NAMED_UNIT ( * ) PLANE_ANGLE_UNIT ( ) SI_UNIT ( $, .RADIAN. ) );
#52 = CIRCLE ( 'NONE', #35, 0.3250000000000000666 ) ;
#53 = PERSON_AND_ORGANIZATION ( #113, #185 ) ;
#54 = DESIGN_CONTEXT ( 'detailed design', #104, 'design' ) ;
#55 = ORIENTED_EDGE ( 'NONE', *, *, #69, .F. ) ;
#56 = EDGE_LOOP ( 'NONE', ( #76 ) ) ;
#57 = EDGE_LOOP ( 'NONE', ( #126 ) ) ;
#58 = EDGE_LOOP ( 'NONE', ( #40 ) ) ;
#59 = CYLINDRICAL_SURFACE ( 'NONE', #196, 0.5249999999999988010 ) ;
#60 = FACE_OUTER_BOUND ( 'NONE', #89, .T. ) ;
#61 = CARTESIAN_POINT ( 'NONE',  ( 8.547548554691094975E-16, -2.998076450131453459E-17, 0.2448115205313753373 ) ) ;
#62 = CARTESIAN_POINT ( 'NONE',  ( 5.586370142149013368E-14, 0.5249999999999953593, 16.00000000000000000 ) ) ;
#63 = LOCAL_TIME ( 13, 25, 40.00000000000000000, #195 ) ;
#64 = DIRECTION ( 'NONE',  ( -3.491481338843133355E-15, 1.224646799147353207E-16, -1.000000000000000000 ) ) ;
#65 = APPROVAL ( #182, 'UNSPECIFIED' ) ;
#66 = APPROVAL_DATE_TIME ( #17, #183 ) ;
#67 = PERSON_AND_ORGANIZATION_ROLE ( 'design_owner' ) ;
#68 = PERSON_AND_ORGANIZATION ( #113, #185 ) ;
#69 = EDGE_CURVE ( 'NONE', #114, #114, #52, .T. ) ;
#70 = EDGE_LOOP ( 'NONE', ( #201 ) ) ;
#71 = APPROVAL_PERSON_ORGANIZATION ( #37, #156, #38 ) ;
#72 = APPLICATION_CONTEXT ( 'configuration controlled 3d designs of mechanical parts and assemblies' ) ;
#73 = EDGE_LOOP ( 'NONE', ( #47 ) ) ;
#74 = ADVANCED_FACE ( 'NONE', ( #173 ), #101, .T. ) ;
#75 = DIRECTION ( 'NONE',  ( 4.275831445896958607E-31, 1.000000000000000000, 1.224646799147353207E-16 ) ) ;
#76 = ORIENTED_EDGE ( 'NONE', *, *, #158, .F. ) ;
#77 = VERTEX_POINT ( 'NONE', #146 ) ;
#78 = CARTESIAN_POINT ( 'NONE',  ( 8.547548554691094975E-16, -2.998076450131453459E-17, 0.2448115205313753373 ) ) ;
#79 = LOCAL_TIME ( 13, 25, 40.00000000000000000, #121 ) ;
#80 = PRODUCT_DEFINITION ( 'UNKNOWN', '', #128, #54 ) ;
#81 = DIRECTION ( 'NONE',  ( 0.0000000000000000000, 1.000000000000000000, 0.0000000000000000000 ) ) ;
#82 = PERSON_AND_ORGANIZATION_ROLE ( 'creator' ) ;
#83 = PERSON_AND_ORGANIZATION ( #113, #185 ) ;
#84 = DATE_TIME_ROLE ( 'classification_date' ) ;
#85 =( LENGTH_UNIT ( ) NAMED_UNIT ( * ) SI_UNIT ( .MILLI., .METRE. ) );
#86 = AXIS2_PLACEMENT_3D ( 'NONE', #13, #203, #81 ) ;
#87 = UNCERTAINTY_MEASURE_WITH_UNIT (LENGTH_MEASURE( 1.000000000000000082E-05 ), #85, 'distance_accuracy_value', 'NONE');
#88 = LOCAL_TIME ( 13, 25, 40.00000000000000000, #169 ) ;
#89 = EDGE_LOOP ( 'NONE', ( #25 ) ) ;
#90 = ADVANCED_FACE ( 'NONE', ( #134, #186 ), #176, .T. ) ;
#91 = DIRECTION ( 'NONE',  ( 4.275831445896958607E-31, 1.000000000000000000, 1.224646799147352961E-16 ) ) ;
#92 = VERTEX_POINT ( 'NONE', #11 ) ;
#93 = PRODUCT_DEFINITION_SHAPE ( 'NONE', 'NONE',  #80 ) ;
#94 = PLANE ( 'NONE',  #14 ) ;
#95 = CC_DESIGN_PERSON_AND_ORGANIZATION_ASSIGNMENT ( #50, #122, ( #128 ) ) ;
#96 = DIRECTION ( 'NONE',  ( -4.275831445896958607E-31, -1.000000000000000000, -1.224646799147353207E-16 ) ) ;
#97 = APPLICATION_PROTOCOL_DEFINITION ( 'international standard', 'config_control_design', 1994, #104 ) ;
#98 = PRODUCT_RELATED_PRODUCT_CATEGORY ( 'detail', '', ( #163 ) ) ;
#99 = DATE_AND_TIME ( #177, #79 ) ;
#100 = PERSON_AND_ORGANIZATION ( #113, #185 ) ;
#101 = CONICAL_SURFACE ( 'NONE', #155, 0.5249999999999953593, 1.134464013796309123 ) ;
#102 = AXIS2_PLACEMENT_3D ( 'NONE', #132, #26, #45 ) ;
#103 = DATE_AND_TIME ( #181, #152 ) ;
#104 = APPLICATION_CONTEXT ( 'configuration controlled 3d designs of mechanical parts and assemblies' ) ;
#105 = EDGE_LOOP ( 'NONE', ( #142 ) ) ;
#106 = CALENDAR_DATE ( 2021, 6, 10 ) ;
#107 = MANIFOLD_SOLID_BREP ( 'Corps-Déplacer/Copier1[2]', #199 ) ;
#108 = ORIENTED_EDGE ( 'NONE', *, *, #171, .T. ) ;
#109 = CIRCLE ( 'NONE', #9, 0.5249999999999953593 ) ;
#110 = CC_DESIGN_PERSON_AND_ORGANIZATION_ASSIGNMENT ( #178, #82, ( #80 ) ) ;
#111 = PLANE ( 'NONE',  #18 ) ;
#112 = DIRECTION ( 'NONE',  ( -3.491481338843133355E-15, 1.224646799147353207E-16, -1.000000000000000000 ) ) ;
#113 = PERSON ( 'UNSPECIFIED', 'UNSPECIFIED', 'UNSPECIFIED', ('UNSPECIFIED'), ('UNSPECIFIED'), ('UNSPECIFIED') ) ;
#114 = VERTEX_POINT ( 'NONE', #161 ) ;
#115 = ADVANCED_FACE ( 'NONE', ( #60, #149 ), #59, .T. ) ;
#116 = DIRECTION ( 'NONE',  ( 0.0000000000000000000, 1.000000000000000000, 0.0000000000000000000 ) ) ;
#117 = CARTESIAN_POINT ( 'NONE',  ( 1.326762908760390423E-13, -4.653657836759941941E-15, 38.00000000000000000 ) ) ;
#118 =( NAMED_UNIT ( * ) SI_UNIT ( $, .STERADIAN. ) SOLID_ANGLE_UNIT ( ) );
#119 = AXIS2_PLACEMENT_3D ( 'NONE', #166, #138, #140 ) ;
#120 = ADVANCED_FACE ( 'NONE', ( #42 ), #1, .F. ) ;
#121 = COORDINATED_UNIVERSAL_TIME_OFFSET ( 1, 0, .AHEAD. ) ;
#122 = PERSON_AND_ORGANIZATION_ROLE ( 'creator' ) ;
#123 = COORDINATED_UNIVERSAL_TIME_OFFSET ( 1, 0, .AHEAD. ) ;
#124 = CALENDAR_DATE ( 2021, 6, 10 ) ;
#125 = APPROVAL_DATE_TIME ( #39, #156 ) ;
#126 = ORIENTED_EDGE ( 'NONE', *, *, #202, .F. ) ;
#127 = CLOSED_SHELL ( 'NONE', ( #120, #115, #90, #198 ) ) ;
#128 = PRODUCT_DEFINITION_FORMATION_WITH_SPECIFIED_SOURCE ( 'ANY', '', #163, .NOT_KNOWN. ) ;
#129 = SECURITY_CLASSIFICATION ( '', '', #21 ) ;
#130 = CARTESIAN_POINT ( 'NONE',  ( 0.0000000000000000000, 0.0000000000000000000, 0.0000000000000000000 ) ) ;
#131 = CARTESIAN_POINT ( 'NONE',  ( 5.586370142149013368E-14, -1.959434878635765131E-15, 16.00000000000000000 ) ) ;
#132 = CARTESIAN_POINT ( 'NONE',  ( 5.586370142149013368E-14, -1.959434878635765131E-15, 16.00000000000000000 ) ) ;
#133 = CIRCLE ( 'NONE', #20, 0.5249999999999973577 ) ;
#134 = FACE_OUTER_BOUND ( 'NONE', #57, .T. ) ;
#135 = CARTESIAN_POINT ( 'NONE',  ( 0.0000000000000000000, 0.0000000000000000000, 0.0000000000000000000 ) ) ;
#136 = CALENDAR_DATE ( 2021, 6, 10 ) ;
#137 = APPROVAL_PERSON_ORGANIZATION ( #68, #65, #193 ) ;
#138 = DIRECTION ( 'NONE',  ( 0.0000000000000000000, 0.0000000000000000000, 1.000000000000000000 ) ) ;
#139 = CC_DESIGN_PERSON_AND_ORGANIZATION_ASSIGNMENT ( #34, #165, ( #128 ) ) ;
#140 = DIRECTION ( 'NONE',  ( 1.000000000000000000, 0.0000000000000000000, 0.0000000000000000000 ) ) ;
#141 = SHAPE_DEFINITION_REPRESENTATION ( #93, #194 ) ;
#142 = ORIENTED_EDGE ( 'NONE', *, *, #202, .T. ) ;
#143 = EDGE_LOOP ( 'NONE', ( #160 ) ) ;
#144 = CARTESIAN_POINT ( 'NONE',  ( 1.319779946082704535E-13, -4.629164900776995227E-15, 37.79999999999999716 ) ) ;
#145 = DIRECTION ( 'NONE',  ( -3.668437989309053182E-31, -1.000000000000000000, -1.032573497605251469E-16 ) ) ;
#146 = CARTESIAN_POINT ( 'NONE',  ( 5.586370142149013368E-14, 0.5249999999999953593, 16.00000000000000000 ) ) ;
#147 = LOCAL_TIME ( 13, 25, 40.00000000000000000, #49 ) ;
#148 = DIRECTION ( 'NONE',  ( -3.491481338843133355E-15, 1.224646799147353207E-16, -1.000000000000000000 ) ) ;
#149 = FACE_OUTER_BOUND ( 'NONE', #105, .T. ) ;
#150 = APPROVAL_STATUS ( 'not_yet_approved' ) ;
#151 = APPROVAL_DATE_TIME ( #99, #65 ) ;
#152 = LOCAL_TIME ( 13, 25, 40.00000000000000000, #123 ) ;
#153 = PERSON_AND_ORGANIZATION_ROLE ( 'classification_officer' ) ;
#154 = VERTEX_POINT ( 'NONE', #197 ) ;
#155 = AXIS2_PLACEMENT_3D ( 'NONE', #61, #172, #145 ) ;
#156 = APPROVAL ( #6, 'UNSPECIFIED' ) ;
#157 = AXIS2_PLACEMENT_3D ( 'NONE', #144, #187, #43 ) ;
#158 = EDGE_CURVE ( 'NONE', #92, #92, #109, .T. ) ;
#159 = CARTESIAN_POINT ( 'NONE',  ( 1.326762908760390423E-13, 2.437109646825449506E-33, 38.00000000000000000 ) ) ;
#160 = ORIENTED_EDGE ( 'NONE', *, *, #191, .F. ) ;
#161 = CARTESIAN_POINT ( 'NONE',  ( 1.326762908760390423E-13, 0.3249999999999954037, 38.00000000000000000 ) ) ;
#162 = CARTESIAN_POINT ( 'NONE',  ( 5.586370142149013368E-14, 3.936869429487326956E-33, 16.00000000000000000 ) ) ;
#163 = PRODUCT ( '102', '102', '', ( #32 ) ) ;
#164 = CC_DESIGN_APPROVAL ( #183, ( #80 ) ) ;
#165 = PERSON_AND_ORGANIZATION_ROLE ( 'design_supplier' ) ;
#166 = CARTESIAN_POINT ( 'NONE',  ( 0.0000000000000000000, 0.0000000000000000000, 0.0000000000000000000 ) ) ;
#167 = CC_DESIGN_DATE_AND_TIME_ASSIGNMENT ( #16, #22, ( #80 ) ) ;
#168 = CIRCLE ( 'NONE', #157, 0.5250000000000000222 ) ;
#169 = COORDINATED_UNIVERSAL_TIME_OFFSET ( 1, 0, .AHEAD. ) ;
#170 = DIRECTION ( 'NONE',  ( -3.491481338843133355E-15, 1.224646799147353207E-16, -1.000000000000000000 ) ) ;
#171 = EDGE_CURVE ( 'NONE', #77, #77, #5, .T. ) ;
#172 = DIRECTION ( 'NONE',  ( 3.491481338843133355E-15, -1.224646799147353207E-16, 1.000000000000000000 ) ) ;
#173 = FACE_OUTER_BOUND ( 'NONE', #70, .T. ) ;
#174 = FACE_OUTER_BOUND ( 'NONE', #143, .T. ) ;
#175 = CYLINDRICAL_SURFACE ( 'NONE', #189, 0.5249999999999963585 ) ;
#176 = CONICAL_SURFACE ( 'NONE', #86, 0.3250000000000000666, 0.7853981633974512766 ) ;
#177 = CALENDAR_DATE ( 2021, 6, 10 ) ;
#178 = PERSON_AND_ORGANIZATION ( #113, #185 ) ;
#179 = CC_DESIGN_APPROVAL ( #156, ( #129 ) ) ;
#180 = MANIFOLD_SOLID_BREP ( 'Corps-Déplacer/Copier1[1]', #127 ) ;
#181 = CALENDAR_DATE ( 2021, 6, 10 ) ;
#182 = APPROVAL_STATUS ( 'not_yet_approved' ) ;
#183 = APPROVAL ( #150, 'UNSPECIFIED' ) ;
#184 = EDGE_LOOP ( 'NONE', ( #55 ) ) ;
#185 = ORGANIZATION ( 'UNSPECIFIED', 'UNSPECIFIED', '' ) ;
#186 = FACE_BOUND ( 'NONE', #58, .T. ) ;
#187 = DIRECTION ( 'NONE',  ( -3.491481338843133355E-15, 1.224646799147353207E-16, -1.000000000000000000 ) ) ;
#188 = DIRECTION ( 'NONE',  ( 3.491481338843133355E-15, -1.224646799147353207E-16, 1.000000000000000000 ) ) ;
#189 = AXIS2_PLACEMENT_3D ( 'NONE', #135, #112, #192 ) ;
#190 = DIRECTION ( 'NONE',  ( 0.0000000000000000000, 1.000000000000000000, 0.0000000000000000000 ) ) ;
#191 = EDGE_CURVE ( 'NONE', #2, #2, #133, .T. ) ;
#192 = DIRECTION ( 'NONE',  ( 4.275831445896958607E-31, 1.000000000000000000, 1.224646799147353454E-16 ) ) ;
#193 = APPROVAL_ROLE ( '' ) ;
#194 = ADVANCED_BREP_SHAPE_REPRESENTATION ( '102', ( #180, #107, #119 ), #19 ) ;
#195 = COORDINATED_UNIVERSAL_TIME_OFFSET ( 1, 0, .AHEAD. ) ;
#196 = AXIS2_PLACEMENT_3D ( 'NONE', #130, #64, #91 ) ;
#197 = CARTESIAN_POINT ( 'NONE',  ( 1.319779946082704535E-13, 0.5249999999999953593, 37.79999999999999716 ) ) ;
#198 = ADVANCED_FACE ( 'NONE', ( #27 ), #94, .F. ) ;
#199 = CLOSED_SHELL ( 'NONE', ( #74, #7, #44 ) ) ;
#200 = CC_DESIGN_PERSON_AND_ORGANIZATION_ASSIGNMENT ( #53, #67, ( #163 ) ) ;
#201 = ORIENTED_EDGE ( 'NONE', *, *, #158, .T. ) ;
#202 = EDGE_CURVE ( 'NONE', #154, #154, #168, .T. ) ;
#203 = DIRECTION ( 'NONE',  ( -3.491481338843133355E-15, 1.224646799147353207E-16, -1.000000000000000000 ) ) ;
ENDSEC;
END-ISO-10303-21;
