ISO-10303-21;
HEADER;
FILE_DESCRIPTION (( 'STEP AP203' ),
    '1' );
FILE_NAME ('101.step',
    '2021-10-06T11:25:40',
    ( '' ),
    ( '' ),
    'SwSTEP 2.0',
    'SolidWorks 2019',
    '' );
FILE_SCHEMA (( 'CONFIG_CONTROL_DESIGN' ));
ENDSEC;

DATA;
#1 = PERSON_AND_ORGANIZATION_ROLE ( 'creator' ) ;
#2 = PERSON_AND_ORGANIZATION ( #129, #127 ) ;
#3 = CIRCLE ( 'NONE', #56, 0.3000000000000000444 ) ;
#4 = APPROVAL_PERSON_ORGANIZATION ( #185, #43, #112 ) ;
#5 = CARTESIAN_POINT ( 'NONE',  ( 0.0000000000000000000, 0.0000000000000000000, 0.0000000000000000000 ) ) ;
#6 = AXIS2_PLACEMENT_3D ( 'NONE', #132, #58, #103 ) ;
#7 = CARTESIAN_POINT ( 'NONE',  ( 8.140522433039134314E-16, -2.855310904887097124E-17, 0.2331538290775002076 ) ) ;
#8 = ADVANCED_FACE ( 'NONE', ( #137, #149 ), #198, .T. ) ;
#9 = FACE_OUTER_BOUND ( 'NONE', #74, .T. ) ;
#10 = FACE_OUTER_BOUND ( 'NONE', #159, .T. ) ;
#11 = ORIENTED_EDGE ( 'NONE', *, *, #14, .F. ) ;
#12 = DIRECTION ( 'NONE',  ( -3.491481338843133355E-15, 1.224646799147353207E-16, -1.000000000000000000 ) ) ;
#13 = APPROVAL_DATE_TIME ( #169, #43 ) ;
#14 = EDGE_CURVE ( 'NONE', #62, #62, #164, .T. ) ;
#15 = CARTESIAN_POINT ( 'NONE',  ( 0.0000000000000000000, 0.0000000000000000000, 0.0000000000000000000 ) ) ;
#16 = COORDINATED_UNIVERSAL_TIME_OFFSET ( 1, 0, .AHEAD. ) ;
#17 = EDGE_LOOP ( 'NONE', ( #86 ) ) ;
#18 = CALENDAR_DATE ( 2021, 6, 10 ) ;
#19 = APPLICATION_CONTEXT ( 'configuration controlled 3d designs of mechanical parts and assemblies' ) ;
#20 = PRODUCT_RELATED_PRODUCT_CATEGORY ( 'detail', '', ( #145 ) ) ;
#21 = SECURITY_CLASSIFICATION ( '', '', #188 ) ;
#22 = EDGE_LOOP ( 'NONE', ( #23 ) ) ;
#23 = ORIENTED_EDGE ( 'NONE', *, *, #147, .T. ) ;
#24 =( GEOMETRIC_REPRESENTATION_CONTEXT ( 3 ) GLOBAL_UNCERTAINTY_ASSIGNED_CONTEXT ( ( #70 ) ) GLOBAL_UNIT_ASSIGNED_CONTEXT ( ( #155, #82, #94 ) ) REPRESENTATION_CONTEXT ( 'NONE', 'WORKASPACE' ) );
#25 = DIRECTION ( 'NONE',  ( -3.491481338843133355E-15, 1.224646799147353207E-16, -1.000000000000000000 ) ) ;
#26 = ORIENTED_EDGE ( 'NONE', *, *, #53, .T. ) ;
#27 = CARTESIAN_POINT ( 'NONE',  ( 0.0000000000000000000, 0.0000000000000000000, 0.0000000000000000000 ) ) ;
#28 = CONICAL_SURFACE ( 'NONE', #175, 0.4999999999999953371, 1.134464013796309123 ) ;
#29 = PERSON_AND_ORGANIZATION ( #129, #127 ) ;
#30 = VERTEX_POINT ( 'NONE', #156 ) ;
#31 = DIRECTION ( 'NONE',  ( 4.275831445896958607E-31, 1.000000000000000000, 1.224646799147353207E-16 ) ) ;
#32 = AXIS2_PLACEMENT_3D ( 'NONE', #90, #121, #150 ) ;
#33 = MECHANICAL_CONTEXT ( 'NONE', #19, 'mechanical' ) ;
#34 = ORIENTED_EDGE ( 'NONE', *, *, #194, .F. ) ;
#35 = DATE_AND_TIME ( #187, #165 ) ;
#36 = PERSON_AND_ORGANIZATION_ROLE ( 'design_supplier' ) ;
#37 = ADVANCED_FACE ( 'NONE', ( #88 ), #135, .F. ) ;
#38 = APPROVAL_DATE_TIME ( #54, #67 ) ;
#39 = CARTESIAN_POINT ( 'NONE',  ( 5.586370142149013368E-14, 3.749399456654594755E-33, 16.00000000000000000 ) ) ;
#40 = DIRECTION ( 'NONE',  ( -3.491481338843133355E-15, 1.224646799147353207E-16, -1.000000000000000000 ) ) ;
#41 = EDGE_LOOP ( 'NONE', ( #181 ) ) ;
#42 = DIRECTION ( 'NONE',  ( 0.0000000000000000000, 1.000000000000000000, 0.0000000000000000000 ) ) ;
#43 = APPROVAL ( #48, 'UNSPECIFIED' ) ;
#44 = CYLINDRICAL_SURFACE ( 'NONE', #143, 0.4999999999999963363 ) ;
#45 = AXIS2_PLACEMENT_3D ( 'NONE', #5, #25, #163 ) ;
#46 = PRODUCT_DEFINITION_FORMATION_WITH_SPECIFIED_SOURCE ( 'ANY', '', #145, .NOT_KNOWN. ) ;
#47 = EDGE_CURVE ( 'NONE', #168, #168, #3, .T. ) ;
#48 = APPROVAL_STATUS ( 'not_yet_approved' ) ;
#49 = CIRCLE ( 'NONE', #104, 0.5000000000000000000 ) ;
#50 = DATE_TIME_ROLE ( 'creation_date' ) ;
#51 = PERSON_AND_ORGANIZATION ( #129, #127 ) ;
#52 = AXIS2_PLACEMENT_3D ( 'NONE', #83, #139, #31 ) ;
#53 = EDGE_CURVE ( 'NONE', #95, #95, #189, .T. ) ;
#54 = DATE_AND_TIME ( #174, #81 ) ;
#55 = DATE_AND_TIME ( #18, #134 ) ;
#56 = AXIS2_PLACEMENT_3D ( 'NONE', #92, #153, #177 ) ;
#57 = ORIENTED_EDGE ( 'NONE', *, *, #47, .F. ) ;
#58 = DIRECTION ( 'NONE',  ( -3.491481338843133355E-15, 1.224646799147353207E-16, -1.000000000000000000 ) ) ;
#59 = DIRECTION ( 'NONE',  ( 3.851859888774507614E-31, 1.000000000000000000, 1.084202172485514541E-16 ) ) ;
#60 = CC_DESIGN_PERSON_AND_ORGANIZATION_ASSIGNMENT ( #117, #119, ( #21 ) ) ;
#61 = CARTESIAN_POINT ( 'NONE',  ( 5.586370142149013368E-14, 0.4999999999999953371, 16.00000000000000000 ) ) ;
#62 = VERTEX_POINT ( 'NONE', #61 ) ;
#63 = COORDINATED_UNIVERSAL_TIME_OFFSET ( 1, 0, .AHEAD. ) ;
#64 = CC_DESIGN_PERSON_AND_ORGANIZATION_ASSIGNMENT ( #98, #141, ( #144 ) ) ;
#65 = APPROVAL_DATE_TIME ( #55, #118 ) ;
#66 = DATE_TIME_ROLE ( 'classification_date' ) ;
#67 = APPROVAL ( #122, 'UNSPECIFIED' ) ;
#68 = APPROVAL_ROLE ( '' ) ;
#69 = CARTESIAN_POINT ( 'NONE',  ( 5.586370142149013368E-14, -1.959434878635765131E-15, 16.00000000000000000 ) ) ;
#70 = UNCERTAINTY_MEASURE_WITH_UNIT (LENGTH_MEASURE( 1.000000000000000082E-05 ), #155, 'distance_accuracy_value', 'NONE');
#71 = FACE_BOUND ( 'NONE', #41, .T. ) ;
#72 = ADVANCED_FACE ( 'NONE', ( #10, #71 ), #101, .T. ) ;
#73 = FACE_OUTER_BOUND ( 'NONE', #100, .T. ) ;
#74 = EDGE_LOOP ( 'NONE', ( #26 ) ) ;
#75 = CC_DESIGN_APPROVAL ( #118, ( #21 ) ) ;
#76 = ADVANCED_BREP_SHAPE_REPRESENTATION ( '101', ( #113, #111, #196 ), #24 ) ;
#77 = DIRECTION ( 'NONE',  ( 3.491481338843133355E-15, -1.224646799147353207E-16, 1.000000000000000000 ) ) ;
#78 = DIRECTION ( 'NONE',  ( 4.275831445896958607E-31, 1.000000000000000000, 1.224646799147353207E-16 ) ) ;
#79 = FACE_OUTER_BOUND ( 'NONE', #178, .T. ) ;
#80 = PRODUCT_DEFINITION_SHAPE ( 'NONE', 'NONE',  #144 ) ;
#81 = LOCAL_TIME ( 13, 25, 40.00000000000000000, #166 ) ;
#82 =( NAMED_UNIT ( * ) PLANE_ANGLE_UNIT ( ) SI_UNIT ( $, .RADIAN. ) );
#83 = CARTESIAN_POINT ( 'NONE',  ( 1.326762908760390423E-13, 2.249639673992716963E-33, 38.00000000000000000 ) ) ;
#84 = ADVANCED_FACE ( 'NONE', ( #9 ), #28, .T. ) ;
#85 = SHAPE_DEFINITION_REPRESENTATION ( #80, #76 ) ;
#86 = ORIENTED_EDGE ( 'NONE', *, *, #194, .T. ) ;
#87 = AXIS2_PLACEMENT_3D ( 'NONE', #193, #120, #42 ) ;
#88 = FACE_OUTER_BOUND ( 'NONE', #107, .T. ) ;
#89 = CC_DESIGN_SECURITY_CLASSIFICATION ( #21, ( #46 ) ) ;
#90 = CARTESIAN_POINT ( 'NONE',  ( 5.586370142149013368E-14, 3.749399456654594755E-33, 16.00000000000000000 ) ) ;
#91 = FACE_OUTER_BOUND ( 'NONE', #22, .T. ) ;
#92 = CARTESIAN_POINT ( 'NONE',  ( 1.326762908760390423E-13, -4.653657836759941941E-15, 38.00000000000000000 ) ) ;
#93 = AXIS2_PLACEMENT_3D ( 'NONE', #39, #152, #133 ) ;
#94 =( NAMED_UNIT ( * ) SI_UNIT ( $, .STERADIAN. ) SOLID_ANGLE_UNIT ( ) );
#95 = VERTEX_POINT ( 'NONE', #123 ) ;
#96 = CLOSED_SHELL ( 'NONE', ( #84, #162, #128 ) ) ;
#97 = CC_DESIGN_APPROVAL ( #43, ( #144 ) ) ;
#98 = PERSON_AND_ORGANIZATION ( #129, #127 ) ;
#99 = PERSON_AND_ORGANIZATION_ROLE ( 'design_owner' ) ;
#100 = EDGE_LOOP ( 'NONE', ( #192 ) ) ;
#101 = CONICAL_SURFACE ( 'NONE', #6, 0.3000000000000000444, 0.7853981633974512766 ) ;
#102 = LOCAL_TIME ( 13, 25, 40.00000000000000000, #63 ) ;
#103 = DIRECTION ( 'NONE',  ( 0.0000000000000000000, 1.000000000000000000, 0.0000000000000000000 ) ) ;
#104 = AXIS2_PLACEMENT_3D ( 'NONE', #202, #199, #170 ) ;
#105 = CARTESIAN_POINT ( 'NONE',  ( 8.140522433039134314E-16, -2.855310904887097124E-17, 0.2331538290775002076 ) ) ;
#106 = FACE_OUTER_BOUND ( 'NONE', #146, .T. ) ;
#107 = EDGE_LOOP ( 'NONE', ( #131 ) ) ;
#108 = DESIGN_CONTEXT ( 'detailed design', #191, 'design' ) ;
#109 = APPROVAL_ROLE ( '' ) ;
#110 = AXIS2_PLACEMENT_3D ( 'NONE', #7, #40, #59 ) ;
#111 = MANIFOLD_SOLID_BREP ( 'Corps-Déplacer/Copier1[2]', #96 ) ;
#112 = APPROVAL_ROLE ( '' ) ;
#113 = MANIFOLD_SOLID_BREP ( 'Corps-Déplacer/Copier1[1]', #130 ) ;
#114 = PLANE ( 'NONE',  #52 ) ;
#115 = APPROVAL_PERSON_ORGANIZATION ( #116, #67, #109 ) ;
#116 = PERSON_AND_ORGANIZATION ( #129, #127 ) ;
#117 = PERSON_AND_ORGANIZATION ( #129, #127 ) ;
#118 = APPROVAL ( #126, 'UNSPECIFIED' ) ;
#119 = PERSON_AND_ORGANIZATION_ROLE ( 'classification_officer' ) ;
#120 = DIRECTION ( 'NONE',  ( -3.491481338843133355E-15, 1.224646799147353207E-16, -1.000000000000000000 ) ) ;
#121 = DIRECTION ( 'NONE',  ( 3.491481338843133355E-15, -1.224646799147353207E-16, 1.000000000000000000 ) ) ;
#122 = APPROVAL_STATUS ( 'not_yet_approved' ) ;
#123 = CARTESIAN_POINT ( 'NONE',  ( 8.140522433039136287E-16, 0.4999999999999953371, 0.2331538290775002631 ) ) ;
#124 = APPLICATION_PROTOCOL_DEFINITION ( 'international standard', 'config_control_design', 1994, #191 ) ;
#125 = CALENDAR_DATE ( 2021, 6, 10 ) ;
#126 = APPROVAL_STATUS ( 'not_yet_approved' ) ;
#127 = ORGANIZATION ( 'UNSPECIFIED', 'UNSPECIFIED', '' ) ;
#128 = ADVANCED_FACE ( 'NONE', ( #73 ), #197, .T. ) ;
#129 = PERSON ( 'UNSPECIFIED', 'UNSPECIFIED', 'UNSPECIFIED', ('UNSPECIFIED'), ('UNSPECIFIED'), ('UNSPECIFIED') ) ;
#130 = CLOSED_SHELL ( 'NONE', ( #37, #8, #72, #179 ) ) ;
#131 = ORIENTED_EDGE ( 'NONE', *, *, #14, .T. ) ;
#132 = CARTESIAN_POINT ( 'NONE',  ( 1.326762908760390423E-13, -4.653657836759941941E-15, 38.00000000000000000 ) ) ;
#133 = DIRECTION ( 'NONE',  ( -4.275831445896958607E-31, -1.000000000000000000, -1.224646799147353207E-16 ) ) ;
#134 = LOCAL_TIME ( 13, 25, 40.00000000000000000, #16 ) ;
#135 = PLANE ( 'NONE',  #93 ) ;
#136 = CC_DESIGN_DATE_AND_TIME_ASSIGNMENT ( #35, #66, ( #21 ) ) ;
#137 = FACE_OUTER_BOUND ( 'NONE', #176, .T. ) ;
#138 = CARTESIAN_POINT ( 'NONE',  ( 1.319779946082704535E-13, 0.4999999999999953371, 37.79999999999999716 ) ) ;
#139 = DIRECTION ( 'NONE',  ( -3.491481338843133355E-15, 1.224646799147353207E-16, -1.000000000000000000 ) ) ;
#140 = CC_DESIGN_PERSON_AND_ORGANIZATION_ASSIGNMENT ( #51, #36, ( #46 ) ) ;
#141 = PERSON_AND_ORGANIZATION_ROLE ( 'creator' ) ;
#142 = COORDINATED_UNIVERSAL_TIME_OFFSET ( 1, 0, .AHEAD. ) ;
#143 = AXIS2_PLACEMENT_3D ( 'NONE', #27, #12, #78 ) ;
#144 = PRODUCT_DEFINITION ( 'UNKNOWN', '', #46, #108 ) ;
#145 = PRODUCT ( '101', '101', '', ( #33 ) ) ;
#146 = EDGE_LOOP ( 'NONE', ( #182 ) ) ;
#147 = EDGE_CURVE ( 'NONE', #30, #30, #184, .T. ) ;
#148 = LOCAL_TIME ( 13, 25, 40.00000000000000000, #142 ) ;
#149 = FACE_OUTER_BOUND ( 'NONE', #17, .T. ) ;
#150 = DIRECTION ( 'NONE',  ( -4.275831445896958607E-31, -1.000000000000000000, -1.224646799147353207E-16 ) ) ;
#151 = CC_DESIGN_PERSON_AND_ORGANIZATION_ASSIGNMENT ( #29, #99, ( #145 ) ) ;
#152 = DIRECTION ( 'NONE',  ( 3.491481338843133355E-15, -1.224646799147353207E-16, 1.000000000000000000 ) ) ;
#153 = DIRECTION ( 'NONE',  ( -3.491481338843133355E-15, 1.224646799147353207E-16, -1.000000000000000000 ) ) ;
#154 = CARTESIAN_POINT ( 'NONE',  ( 1.326762908760390423E-13, 0.2999999999999953815, 38.00000000000000000 ) ) ;
#155 =( LENGTH_UNIT ( ) NAMED_UNIT ( * ) SI_UNIT ( .MILLI., .METRE. ) );
#156 = CARTESIAN_POINT ( 'NONE',  ( 5.586370142149013368E-14, 0.4999999999999953371, 16.00000000000000000 ) ) ;
#157 = VERTEX_POINT ( 'NONE', #138 ) ;
#158 = PERSON_AND_ORGANIZATION ( #129, #127 ) ;
#159 = EDGE_LOOP ( 'NONE', ( #34 ) ) ;
#160 = DIRECTION ( 'NONE',  ( 0.0000000000000000000, 1.000000000000000000, 0.0000000000000000000 ) ) ;
#161 = DIRECTION ( 'NONE',  ( -3.851859888774507614E-31, -1.000000000000000000, -1.084202172485514541E-16 ) ) ;
#162 = ADVANCED_FACE ( 'NONE', ( #106, #91 ), #44, .T. ) ;
#163 = DIRECTION ( 'NONE',  ( 4.275831445896958607E-31, 1.000000000000000000, 1.224646799147353207E-16 ) ) ;
#164 = CIRCLE ( 'NONE', #195, 0.4999999999999972800 ) ;
#165 = LOCAL_TIME ( 13, 25, 40.00000000000000000, #171 ) ;
#166 = COORDINATED_UNIVERSAL_TIME_OFFSET ( 1, 0, .AHEAD. ) ;
#167 = DIRECTION ( 'NONE',  ( 0.0000000000000000000, 0.0000000000000000000, 1.000000000000000000 ) ) ;
#168 = VERTEX_POINT ( 'NONE', #154 ) ;
#169 = DATE_AND_TIME ( #183, #148 ) ;
#170 = DIRECTION ( 'NONE',  ( 0.0000000000000000000, 1.000000000000000000, 0.0000000000000000000 ) ) ;
#171 = COORDINATED_UNIVERSAL_TIME_OFFSET ( 1, 0, .AHEAD. ) ;
#172 = CC_DESIGN_APPROVAL ( #67, ( #46 ) ) ;
#173 = CC_DESIGN_DATE_AND_TIME_ASSIGNMENT ( #186, #50, ( #144 ) ) ;
#174 = CALENDAR_DATE ( 2021, 6, 10 ) ;
#175 = AXIS2_PLACEMENT_3D ( 'NONE', #105, #77, #161 ) ;
#176 = EDGE_LOOP ( 'NONE', ( #11 ) ) ;
#177 = DIRECTION ( 'NONE',  ( 0.0000000000000000000, 1.000000000000000000, 0.0000000000000000000 ) ) ;
#178 = EDGE_LOOP ( 'NONE', ( #57 ) ) ;
#179 = ADVANCED_FACE ( 'NONE', ( #79 ), #114, .F. ) ;
#180 = APPROVAL_PERSON_ORGANIZATION ( #2, #118, #68 ) ;
#181 = ORIENTED_EDGE ( 'NONE', *, *, #47, .T. ) ;
#182 = ORIENTED_EDGE ( 'NONE', *, *, #53, .F. ) ;
#183 = CALENDAR_DATE ( 2021, 6, 10 ) ;
#184 = CIRCLE ( 'NONE', #87, 0.4999999999999972800 ) ;
#185 = PERSON_AND_ORGANIZATION ( #129, #127 ) ;
#186 = DATE_AND_TIME ( #125, #102 ) ;
#187 = CALENDAR_DATE ( 2021, 6, 10 ) ;
#188 = SECURITY_CLASSIFICATION_LEVEL ( 'unclassified' ) ;
#189 = CIRCLE ( 'NONE', #110, 0.4999999999999953371 ) ;
#190 = DIRECTION ( 'NONE',  ( -3.491481338843133355E-15, 1.224646799147353207E-16, -1.000000000000000000 ) ) ;
#191 = APPLICATION_CONTEXT ( 'configuration controlled 3d designs of mechanical parts and assemblies' ) ;
#192 = ORIENTED_EDGE ( 'NONE', *, *, #147, .F. ) ;
#193 = CARTESIAN_POINT ( 'NONE',  ( 5.586370142149013368E-14, -1.959434878635765131E-15, 16.00000000000000000 ) ) ;
#194 = EDGE_CURVE ( 'NONE', #157, #157, #49, .T. ) ;
#195 = AXIS2_PLACEMENT_3D ( 'NONE', #69, #190, #160 ) ;
#196 = AXIS2_PLACEMENT_3D ( 'NONE', #15, #167, #203 ) ;
#197 = PLANE ( 'NONE',  #32 ) ;
#198 = CYLINDRICAL_SURFACE ( 'NONE', #45, 0.4999999999999987232 ) ;
#199 = DIRECTION ( 'NONE',  ( -3.491481338843133355E-15, 1.224646799147353207E-16, -1.000000000000000000 ) ) ;
#200 = APPLICATION_PROTOCOL_DEFINITION ( 'international standard', 'config_control_design', 1994, #19 ) ;
#201 = CC_DESIGN_PERSON_AND_ORGANIZATION_ASSIGNMENT ( #158, #1, ( #46 ) ) ;
#202 = CARTESIAN_POINT ( 'NONE',  ( 1.319779946082704535E-13, -4.629164900776995227E-15, 37.79999999999999716 ) ) ;
#203 = DIRECTION ( 'NONE',  ( 1.000000000000000000, 0.0000000000000000000, 0.0000000000000000000 ) ) ;
ENDSEC;
END-ISO-10303-21;
