ISO-10303-21;
HEADER;
FILE_DESCRIPTION (( 'STEP AP203' ),
    '1' );
FILE_NAME ('100.step',
    '2021-10-06T11:25:39',
    ( '' ),
    ( '' ),
    'SwSTEP 2.0',
    'SolidWorks 2019',
    '' );
FILE_SCHEMA (( 'CONFIG_CONTROL_DESIGN' ));
ENDSEC;

DATA;
#1 = APPROVAL ( #82, 'UNSPECIFIED' ) ;
#2 = AXIS2_PLACEMENT_3D ( 'NONE', #147, #10, #131 ) ;
#3 = AXIS2_PLACEMENT_3D ( 'NONE', #152, #180, #183 ) ;
#4 = APPLICATION_CONTEXT ( 'configuration controlled 3d designs of mechanical parts and assemblies' ) ;
#5 = DIRECTION ( 'NONE',  ( 0.0000000000000000000, 1.000000000000000000, 0.0000000000000000000 ) ) ;
#6 = AXIS2_PLACEMENT_3D ( 'NONE', #135, #43, #22 ) ;
#7 = AXIS2_PLACEMENT_3D ( 'NONE', #198, #62, #92 ) ;
#8 = CARTESIAN_POINT ( 'NONE',  ( 0.0000000000000000000, 0.0000000000000000000, 0.0000000000000000000 ) ) ;
#9 = ORIENTED_EDGE ( 'NONE', *, *, #54, .F. ) ;
#10 = DIRECTION ( 'NONE',  ( 3.491481338843133355E-15, -1.224646799147353207E-16, 1.000000000000000000 ) ) ;
#11 = FACE_OUTER_BOUND ( 'NONE', #134, .T. ) ;
#12 = CALENDAR_DATE ( 2021, 6, 10 ) ;
#13 = ADVANCED_FACE ( 'NONE', ( #172, #190 ), #25, .T. ) ;
#14 = PLANE ( 'NONE',  #7 ) ;
#15 = VERTEX_POINT ( 'NONE', #75 ) ;
#16 = CARTESIAN_POINT ( 'NONE',  ( 5.586370142149013368E-14, 0.4749999999999953704, 16.00000000000000000 ) ) ;
#17 = CC_DESIGN_PERSON_AND_ORGANIZATION_ASSIGNMENT ( #63, #122, ( #177 ) ) ;
#18 = DIRECTION ( 'NONE',  ( 1.000000000000000000, 0.0000000000000000000, 0.0000000000000000000 ) ) ;
#19 = CIRCLE ( 'NONE', #129, 0.4749999999999954259 ) ;
#20 = PERSON_AND_ORGANIZATION ( #37, #115 ) ;
#21 = CC_DESIGN_APPROVAL ( #50, ( #176 ) ) ;
#22 = DIRECTION ( 'NONE',  ( -4.275831445896958607E-31, -1.000000000000000000, -1.224646799147353207E-16 ) ) ;
#23 = ORIENTED_EDGE ( 'NONE', *, *, #34, .F. ) ;
#24 = CIRCLE ( 'NONE', #151, 0.4749999999999973688 ) ;
#25 = CYLINDRICAL_SURFACE ( 'NONE', #107, 0.4749999999999963696 ) ;
#26 = FACE_OUTER_BOUND ( 'NONE', #72, .T. ) ;
#27 = EDGE_LOOP ( 'NONE', ( #84 ) ) ;
#28 = PERSON_AND_ORGANIZATION_ROLE ( 'creator' ) ;
#29 = CARTESIAN_POINT ( 'NONE',  ( 0.0000000000000000000, 0.0000000000000000000, 0.0000000000000000000 ) ) ;
#30 = CIRCLE ( 'NONE', #193, 0.4749999999999973688 ) ;
#31 = LOCAL_TIME ( 13, 25, 39.00000000000000000, #165 ) ;
#32 = PLANE ( 'NONE',  #3 ) ;
#33 = VERTEX_POINT ( 'NONE', #201 ) ;
#34 = EDGE_CURVE ( 'NONE', #49, #49, #19, .T. ) ;
#35 = PERSON_AND_ORGANIZATION_ROLE ( 'creator' ) ;
#36 = CALENDAR_DATE ( 2021, 6, 10 ) ;
#37 = PERSON ( 'UNSPECIFIED', 'UNSPECIFIED', 'UNSPECIFIED', ('UNSPECIFIED'), ('UNSPECIFIED'), ('UNSPECIFIED') ) ;
#38 = ADVANCED_FACE ( 'NONE', ( #26 ), #93, .T. ) ;
#39 = AXIS2_PLACEMENT_3D ( 'NONE', #57, #61, #5 ) ;
#40 = MANIFOLD_SOLID_BREP ( 'Corps-Déplacer/Copier1[2]', #90 ) ;
#41 = FACE_OUTER_BOUND ( 'NONE', #154, .T. ) ;
#42 = EDGE_CURVE ( 'NONE', #96, #96, #30, .T. ) ;
#43 = DIRECTION ( 'NONE',  ( 3.491481338843133355E-15, -1.224646799147353207E-16, 1.000000000000000000 ) ) ;
#44 = PLANE ( 'NONE',  #6 ) ;
#45 = DIRECTION ( 'NONE',  ( 0.0000000000000000000, 1.000000000000000000, 0.0000000000000000000 ) ) ;
#46 = ADVANCED_FACE ( 'NONE', ( #117 ), #44, .F. ) ;
#47 = DIRECTION ( 'NONE',  ( 0.0000000000000000000, 0.0000000000000000000, 1.000000000000000000 ) ) ;
#48 = CLOSED_SHELL ( 'NONE', ( #46, #136, #71, #160 ) ) ;
#49 = VERTEX_POINT ( 'NONE', #78 ) ;
#50 = APPROVAL ( #123, 'UNSPECIFIED' ) ;
#51 = COORDINATED_UNIVERSAL_TIME_OFFSET ( 1, 0, .AHEAD. ) ;
#52 =( GEOMETRIC_REPRESENTATION_CONTEXT ( 3 ) GLOBAL_UNCERTAINTY_ASSIGNED_CONTEXT ( ( #179 ) ) GLOBAL_UNIT_ASSIGNED_CONTEXT ( ( #161, #91, #124 ) ) REPRESENTATION_CONTEXT ( 'NONE', 'WORKASPACE' ) );
#53 = DATE_AND_TIME ( #153, #87 ) ;
#54 = EDGE_CURVE ( 'NONE', #15, #15, #24, .T. ) ;
#55 = PERSON_AND_ORGANIZATION ( #37, #115 ) ;
#56 = SECURITY_CLASSIFICATION ( '', '', #169 ) ;
#57 = CARTESIAN_POINT ( 'NONE',  ( 1.323271427421547605E-13, -4.641411368768468584E-15, 37.89999999999999858 ) ) ;
#58 = EDGE_LOOP ( 'NONE', ( #116 ) ) ;
#59 = EDGE_LOOP ( 'NONE', ( #69 ) ) ;
#60 = AXIS2_PLACEMENT_3D ( 'NONE', #86, #105, #158 ) ;
#61 = DIRECTION ( 'NONE',  ( -3.491481338843133355E-15, 1.224646799147353207E-16, -1.000000000000000000 ) ) ;
#62 = DIRECTION ( 'NONE',  ( 3.491481338843133355E-15, -1.224646799147353207E-16, 1.000000000000000000 ) ) ;
#63 = PERSON_AND_ORGANIZATION ( #37, #115 ) ;
#64 = FACE_OUTER_BOUND ( 'NONE', #146, .T. ) ;
#65 = APPROVAL_PERSON_ORGANIZATION ( #20, #1, #187 ) ;
#66 = PRODUCT_DEFINITION_FORMATION_WITH_SPECIFIED_SOURCE ( 'ANY', '', #177, .NOT_KNOWN. ) ;
#67 = APPROVAL_DATE_TIME ( #83, #1 ) ;
#68 = DIRECTION ( 'NONE',  ( -3.491481338843133355E-15, 1.224646799147353207E-16, -1.000000000000000000 ) ) ;
#69 = ORIENTED_EDGE ( 'NONE', *, *, #42, .F. ) ;
#70 = DIRECTION ( 'NONE',  ( -3.491481338843133355E-15, 1.224646799147353207E-16, -1.000000000000000000 ) ) ;
#71 = ADVANCED_FACE ( 'NONE', ( #11, #196 ), #168, .T. ) ;
#72 = EDGE_LOOP ( 'NONE', ( #191 ) ) ;
#73 = DATE_AND_TIME ( #12, #189 ) ;
#74 = CC_DESIGN_PERSON_AND_ORGANIZATION_ASSIGNMENT ( #99, #35, ( #66 ) ) ;
#75 = CARTESIAN_POINT ( 'NONE',  ( 5.586370142149013368E-14, 0.4749999999999953704, 16.00000000000000000 ) ) ;
#76 = VERTEX_POINT ( 'NONE', #121 ) ;
#77 = DIRECTION ( 'NONE',  ( -3.491481338843133355E-15, 1.224646799147353207E-16, -1.000000000000000000 ) ) ;
#78 = CARTESIAN_POINT ( 'NONE',  ( 7.733496311387176613E-16, 0.4749999999999953704, 0.2214961376236251611 ) ) ;
#79 = CALENDAR_DATE ( 2021, 6, 10 ) ;
#80 = COORDINATED_UNIVERSAL_TIME_OFFSET ( 1, 0, .AHEAD. ) ;
#81 = COORDINATED_UNIVERSAL_TIME_OFFSET ( 1, 0, .AHEAD. ) ;
#82 = APPROVAL_STATUS ( 'not_yet_approved' ) ;
#83 = DATE_AND_TIME ( #36, #141 ) ;
#84 = ORIENTED_EDGE ( 'NONE', *, *, #182, .T. ) ;
#85 = CIRCLE ( 'NONE', #39, 0.4750000000000000333 ) ;
#86 = CARTESIAN_POINT ( 'NONE',  ( 1.326762908760390423E-13, -4.653657836759941941E-15, 38.00000000000000000 ) ) ;
#87 = LOCAL_TIME ( 13, 25, 39.00000000000000000, #81 ) ;
#88 = ORIENTED_EDGE ( 'NONE', *, *, #42, .T. ) ;
#89 = DIRECTION ( 'NONE',  ( -3.491481338843133355E-15, 1.224646799147353207E-16, -1.000000000000000000 ) ) ;
#90 = CLOSED_SHELL ( 'NONE', ( #38, #13, #149 ) ) ;
#91 =( NAMED_UNIT ( * ) PLANE_ANGLE_UNIT ( ) SI_UNIT ( $, .RADIAN. ) );
#92 = DIRECTION ( 'NONE',  ( -4.275831445896958607E-31, -1.000000000000000000, -1.224646799147353207E-16 ) ) ;
#93 = CONICAL_SURFACE ( 'NONE', #2, 0.4749999999999954259, 1.134464013796309123 ) ;
#94 = APPROVAL_PERSON_ORGANIZATION ( #55, #111, #167 ) ;
#95 = ADVANCED_BREP_SHAPE_REPRESENTATION ( '100', ( #166, #40, #100 ), #52 ) ;
#96 = VERTEX_POINT ( 'NONE', #16 ) ;
#97 = CC_DESIGN_DATE_AND_TIME_ASSIGNMENT ( #186, #127, ( #56 ) ) ;
#98 = PERSON_AND_ORGANIZATION ( #37, #115 ) ;
#99 = PERSON_AND_ORGANIZATION ( #37, #115 ) ;
#100 = AXIS2_PLACEMENT_3D ( 'NONE', #29, #47, #18 ) ;
#101 = CYLINDRICAL_SURFACE ( 'NONE', #194, 0.4749999999999987010 ) ;
#102 = CARTESIAN_POINT ( 'NONE',  ( 0.0000000000000000000, 0.0000000000000000000, 0.0000000000000000000 ) ) ;
#103 = DESIGN_CONTEXT ( 'detailed design', #139, 'design' ) ;
#104 = DIRECTION ( 'NONE',  ( 4.054589356604746102E-31, 1.000000000000000000, 1.141265444721594604E-16 ) ) ;
#105 = DIRECTION ( 'NONE',  ( -3.491481338843133355E-15, 1.224646799147353207E-16, -1.000000000000000000 ) ) ;
#106 = PERSON_AND_ORGANIZATION ( #37, #115 ) ;
#107 = AXIS2_PLACEMENT_3D ( 'NONE', #102, #70, #133 ) ;
#108 = DIRECTION ( 'NONE',  ( 0.0000000000000000000, 1.000000000000000000, 0.0000000000000000000 ) ) ;
#109 = APPROVAL_PERSON_ORGANIZATION ( #200, #50, #184 ) ;
#110 = CALENDAR_DATE ( 2021, 6, 10 ) ;
#111 = APPROVAL ( #113, 'UNSPECIFIED' ) ;
#112 = SHAPE_DEFINITION_REPRESENTATION ( #119, #95 ) ;
#113 = APPROVAL_STATUS ( 'not_yet_approved' ) ;
#114 = DIRECTION ( 'NONE',  ( 0.0000000000000000000, 1.000000000000000000, 0.0000000000000000000 ) ) ;
#115 = ORGANIZATION ( 'UNSPECIFIED', 'UNSPECIFIED', '' ) ;
#116 = ORIENTED_EDGE ( 'NONE', *, *, #128, .T. ) ;
#117 = FACE_OUTER_BOUND ( 'NONE', #157, .T. ) ;
#118 = APPROVAL_DATE_TIME ( #202, #50 ) ;
#119 = PRODUCT_DEFINITION_SHAPE ( 'NONE', 'NONE',  #176 ) ;
#120 = CC_DESIGN_PERSON_AND_ORGANIZATION_ASSIGNMENT ( #126, #170, ( #56 ) ) ;
#121 = CARTESIAN_POINT ( 'NONE',  ( 1.326762908760390423E-13, 0.3749999999999953926, 38.00000000000000000 ) ) ;
#122 = PERSON_AND_ORGANIZATION_ROLE ( 'design_owner' ) ;
#123 = APPROVAL_STATUS ( 'not_yet_approved' ) ;
#124 =( NAMED_UNIT ( * ) SI_UNIT ( $, .STERADIAN. ) SOLID_ANGLE_UNIT ( ) );
#125 = CC_DESIGN_APPROVAL ( #1, ( #56 ) ) ;
#126 = PERSON_AND_ORGANIZATION ( #37, #115 ) ;
#127 = DATE_TIME_ROLE ( 'classification_date' ) ;
#128 = EDGE_CURVE ( 'NONE', #33, #33, #85, .T. ) ;
#129 = AXIS2_PLACEMENT_3D ( 'NONE', #174, #68, #104 ) ;
#130 = AXIS2_PLACEMENT_3D ( 'NONE', #164, #77, #108 ) ;
#131 = DIRECTION ( 'NONE',  ( -4.054589356604746102E-31, -1.000000000000000000, -1.141265444721594604E-16 ) ) ;
#132 = ORIENTED_EDGE ( 'NONE', *, *, #182, .F. ) ;
#133 = DIRECTION ( 'NONE',  ( 4.275831445896958607E-31, 1.000000000000000000, 1.224646799147353207E-16 ) ) ;
#134 = EDGE_LOOP ( 'NONE', ( #178 ) ) ;
#135 = CARTESIAN_POINT ( 'NONE',  ( 5.586370142149013368E-14, 3.561929483821862554E-33, 16.00000000000000000 ) ) ;
#136 = ADVANCED_FACE ( 'NONE', ( #41, #145 ), #101, .T. ) ;
#137 = DIRECTION ( 'NONE',  ( -3.491481338843133355E-15, 1.224646799147353207E-16, -1.000000000000000000 ) ) ;
#138 = APPLICATION_PROTOCOL_DEFINITION ( 'international standard', 'config_control_design', 1994, #139 ) ;
#139 = APPLICATION_CONTEXT ( 'configuration controlled 3d designs of mechanical parts and assemblies' ) ;
#140 = PERSON_AND_ORGANIZATION_ROLE ( 'design_supplier' ) ;
#141 = LOCAL_TIME ( 13, 25, 39.00000000000000000, #80 ) ;
#142 = APPROVAL_DATE_TIME ( #53, #111 ) ;
#143 = DIRECTION ( 'NONE',  ( -3.491481338843133355E-15, 1.224646799147353207E-16, -1.000000000000000000 ) ) ;
#144 = CC_DESIGN_PERSON_AND_ORGANIZATION_ASSIGNMENT ( #106, #28, ( #176 ) ) ;
#145 = FACE_OUTER_BOUND ( 'NONE', #58, .T. ) ;
#146 = EDGE_LOOP ( 'NONE', ( #132 ) ) ;
#147 = CARTESIAN_POINT ( 'NONE',  ( 7.733496311387174641E-16, -2.712545359642741097E-17, 0.2214961376236251056 ) ) ;
#148 = EDGE_LOOP ( 'NONE', ( #23 ) ) ;
#149 = ADVANCED_FACE ( 'NONE', ( #162 ), #14, .T. ) ;
#150 = APPLICATION_PROTOCOL_DEFINITION ( 'international standard', 'config_control_design', 1994, #4 ) ;
#151 = AXIS2_PLACEMENT_3D ( 'NONE', #195, #143, #45 ) ;
#152 = CARTESIAN_POINT ( 'NONE',  ( 1.326762908760390423E-13, 2.812049592490913566E-33, 38.00000000000000000 ) ) ;
#153 = CALENDAR_DATE ( 2021, 6, 10 ) ;
#154 = EDGE_LOOP ( 'NONE', ( #9 ) ) ;
#155 = PRODUCT_RELATED_PRODUCT_CATEGORY ( 'detail', '', ( #177 ) ) ;
#156 = ORIENTED_EDGE ( 'NONE', *, *, #54, .T. ) ;
#157 = EDGE_LOOP ( 'NONE', ( #156 ) ) ;
#158 = DIRECTION ( 'NONE',  ( 0.0000000000000000000, 1.000000000000000000, 0.0000000000000000000 ) ) ;
#159 = CC_DESIGN_APPROVAL ( #111, ( #66 ) ) ;
#160 = ADVANCED_FACE ( 'NONE', ( #64 ), #32, .F. ) ;
#161 =( LENGTH_UNIT ( ) NAMED_UNIT ( * ) SI_UNIT ( .MILLI., .METRE. ) );
#162 = FACE_OUTER_BOUND ( 'NONE', #59, .T. ) ;
#163 = CC_DESIGN_SECURITY_CLASSIFICATION ( #56, ( #66 ) ) ;
#164 = CARTESIAN_POINT ( 'NONE',  ( 1.326762908760390423E-13, -4.653657836759941941E-15, 38.00000000000000000 ) ) ;
#165 = COORDINATED_UNIVERSAL_TIME_OFFSET ( 1, 0, .AHEAD. ) ;
#166 = MANIFOLD_SOLID_BREP ( 'Corps-Déplacer/Copier1[1]', #48 ) ;
#167 = APPROVAL_ROLE ( '' ) ;
#168 = CONICAL_SURFACE ( 'NONE', #60, 0.3750000000000000555, 0.7853981633974339571 ) ;
#169 = SECURITY_CLASSIFICATION_LEVEL ( 'unclassified' ) ;
#170 = PERSON_AND_ORGANIZATION_ROLE ( 'classification_officer' ) ;
#171 = CIRCLE ( 'NONE', #130, 0.3750000000000000555 ) ;
#172 = FACE_OUTER_BOUND ( 'NONE', #148, .T. ) ;
#173 = EDGE_LOOP ( 'NONE', ( #88 ) ) ;
#174 = CARTESIAN_POINT ( 'NONE',  ( 7.733496311387174641E-16, -2.712545359642741097E-17, 0.2214961376236251056 ) ) ;
#175 = CARTESIAN_POINT ( 'NONE',  ( 5.586370142149013368E-14, -1.959434878635765131E-15, 16.00000000000000000 ) ) ;
#176 = PRODUCT_DEFINITION ( 'UNKNOWN', '', #66, #103 ) ;
#177 = PRODUCT ( '100', '100', '', ( #199 ) ) ;
#178 = ORIENTED_EDGE ( 'NONE', *, *, #128, .F. ) ;
#179 = UNCERTAINTY_MEASURE_WITH_UNIT (LENGTH_MEASURE( 1.000000000000000082E-05 ), #161, 'distance_accuracy_value', 'NONE');
#180 = DIRECTION ( 'NONE',  ( -3.491481338843133355E-15, 1.224646799147353207E-16, -1.000000000000000000 ) ) ;
#181 = DIRECTION ( 'NONE',  ( 4.275831445896958607E-31, 1.000000000000000000, 1.224646799147353207E-16 ) ) ;
#182 = EDGE_CURVE ( 'NONE', #76, #76, #171, .T. ) ;
#183 = DIRECTION ( 'NONE',  ( 4.275831445896958607E-31, 1.000000000000000000, 1.224646799147353207E-16 ) ) ;
#184 = APPROVAL_ROLE ( '' ) ;
#185 = COORDINATED_UNIVERSAL_TIME_OFFSET ( 1, 0, .AHEAD. ) ;
#186 = DATE_AND_TIME ( #79, #31 ) ;
#187 = APPROVAL_ROLE ( '' ) ;
#188 = DATE_TIME_ROLE ( 'creation_date' ) ;
#189 = LOCAL_TIME ( 13, 25, 39.00000000000000000, #51 ) ;
#190 = FACE_OUTER_BOUND ( 'NONE', #173, .T. ) ;
#191 = ORIENTED_EDGE ( 'NONE', *, *, #34, .T. ) ;
#192 = CC_DESIGN_DATE_AND_TIME_ASSIGNMENT ( #73, #188, ( #176 ) ) ;
#193 = AXIS2_PLACEMENT_3D ( 'NONE', #175, #89, #114 ) ;
#194 = AXIS2_PLACEMENT_3D ( 'NONE', #8, #137, #181 ) ;
#195 = CARTESIAN_POINT ( 'NONE',  ( 5.586370142149013368E-14, -1.959434878635765131E-15, 16.00000000000000000 ) ) ;
#196 = FACE_BOUND ( 'NONE', #27, .T. ) ;
#197 = CC_DESIGN_PERSON_AND_ORGANIZATION_ASSIGNMENT ( #98, #140, ( #66 ) ) ;
#198 = CARTESIAN_POINT ( 'NONE',  ( 5.586370142149013368E-14, 3.561929483821862554E-33, 16.00000000000000000 ) ) ;
#199 = MECHANICAL_CONTEXT ( 'NONE', #4, 'mechanical' ) ;
#200 = PERSON_AND_ORGANIZATION ( #37, #115 ) ;
#201 = CARTESIAN_POINT ( 'NONE',  ( 1.323271427421547605E-13, 0.4749999999999953704, 37.89999999999999858 ) ) ;
#202 = DATE_AND_TIME ( #110, #203 ) ;
#203 = LOCAL_TIME ( 13, 25, 39.00000000000000000, #185 ) ;
ENDSEC;
END-ISO-10303-21;
